Song name
# A B C D E F G H I J K L M N O P Q R S T U V W X Y Z

Misc Unsigned Bands - No Age - Neck Escaper tab

-------------------------------------------------------------------------------
                             Neck Escaper - No Age
-------------------------------------------------------------------------------
Tabbed by:jimmy5150
Email:jimmy5150@gmail.com
Band Website: http://www.subpop.com/artists/no_age

tabbed from live performance

Tuning:Standard
easiest when finger-picked
e|---------------------------------------------------------------------------|
B|---7-----7-----7-----7-----7-----7-----7-----7-----------------------------|
G|-----8-----8-----8-----8-----8-----8-----8-----8---------------------------|x2
D|-9-----9-----9-----9-------------------------------------------------------|
A|-------------------------9-----9-----9-----9-------------------------------|
E|---------------------------------------------------------------------------|

e|---------------------------------------------------------------------------|
B|---5-----5-----5-----5-----5-----5-----5-----5-----------------------------|
G|-----6-----6-----6-----6-----6-----6-----6-----6---------------------------|x2
D|-7-----7-----7-----7-------------------------------------------------------|
A|-------------------------7-----7-----7-----7-------------------------------|
E|---------------------------------------------------------------------------|

Part 2 (1:19) Use an octave pedal if you have one, but it sounds fine without it

e|-7-9/11-11-11-9-7--9-9-9-7-------------------------------------------------|
B|---------------------------9-7-9-9-9-7---7-9-9-9---------------------------|
G|---------------------------------------9-----------------------------------|
D|---------------------------------------------------------------------------|
A|---------------------------------------------------------------------------|
E|---------------------------------------------------------------------------|

End (2:02) on
e|-7-9/11--------------------------------------------------------------------|
B|---------------------------------------------------------------------------|
G|---------------------------------------------------------------------------|
D|---------------------------------------------------------------------------|
A|---------------------------------------------------------------------------|
E|---------------------------------------------------------------------------|


| /  slide up
| \  slide down
| h  hammer-on
| p  pull-off
| ~  vibrato
| +  harmonic
| x  Mute note
===============================================================================
Tap to rate this tab
# A B C D E F G H I J K L M N O P Q R S T U V W X Y Z