Song name
# A B C D E F G H I J K L M N O P Q R S T U V W X Y Z

Misc Unsigned Bands - The Swooners - Something To Sleep By tab

Something to Sleep By - The Swooners
(h=hammer on, s=slide, r=release, ~=let ring)
Some of the traveling parts are double-time like the oh1-3s5, 3-1-0 3s1, 0p1h0, and 
in the beginning. Try to get a feel for them cause I couldn't write them simply enough)
Verse:
e-0-------3----0h1-3s5-3-----3------3-1-0-----------1---0p1h0---------3------------|
B----------------------3-------3----------3s1-------1---1-----3-------3--0-1h3-3s5-|
G-0---0----------------0---0----------------0---0-------------0---0----------------|
D----------------------------------------------------------------------------------|
A-3-3---3----3-0---2---2-2-----2--2-0--------------------------------------0---2---|
E-------------------------------------------1-1---1---1---------3---3--------------|

e-0-------3----0h1-3s5-3-----3r0------3-1-0----------1---0p1h0--------------------|
B----------------------3---------3----------3s1------1---1-----3---3---3---3------|
G-0---0----------------0---0------------------0---0------------0---0---0---0------|
D---------------------------------------------------------------------------------|
A-3-3---3----3-0---2---2-2-------2--2-0-------------------------------------------|
E---------------------------------------------1-1---1--1---------3---3---3---3----|

Chorus:
e-0---0---0-----2---------0-------------------------------------------------------|
B-1---1---1---1---0---0---0-------0-0-------------0---------0-------0-------------|
G-----------------0---0---------0---2---2---2-------0---0---0-----0---0-----------|
D-----------------------------0---------0---0---0---0---0-------0-----------------|
A---0---0---0---------------------------------------------------------------------|
E-------------------0---0---0---------1---1---1-------3---3---3-------------------|

e-0---0---0-----2r0---------0-----------------------------------------------------|
B-1---1---1---1-----0---0---0-------0-0-------------------------------------------|
G-------------------0---0---------0---2---2---2---2-2s4-4~------------------------|
D-------------------------------0---------0---0---0-----0~------------------------|
A---0---0---0---------------------------------------------------------------------|
E---------------------0---0---0---------1---1---1-------3~------------------------|

Verse

Bridge:
e---------------------------------------------------------------------------------|
B---------------------------------------------------------------------------------|
G-3---3---3---3-5-2---2---2---2-3-0---0---0---2-0h2-2---2---2-2r0-0-0h2s----------|
D-0---0---0---0---0---0---0---0---0---0---0---------0---0---0---------------------|
A---------------------------------------------------------------------------------|
E---3---3---3-------1---1---1-------0---0---0---------2---2-2---------------------|

e---------------------------------------------------------------------------------|
B---------------------------------------------------------------------------------|
G-3---3---3---3-5r3-2---2---2---2-3r2-0---0---0---0-0h2-2~------------------------|
D-0---0---0---0-----0---0---0---0-----0---0---0-----------------------------------|
A-------------------------------------------------------0~------------------------|
E---3---3---3---------1---1---1---------0---0---0---------------------------------|

Ending verse:
e-0-------3----0h1-3s5-3-----3------3-1-0----------1---0h1r0---------3------------|
B-0--------------------3-------3----------3s1------1---1-----3-------3--0-1h3-3s5-|
G-0---0----------------0---0----------------0---0------------0---0----------------|
D---------------------------------------------------------------------------------|
A-3-3---3----3-0---2---2-2-----2--2-0-------------------------------------0---2---|
E-------------------------------------------1-1---1--1---------3---3--------------|

e-0-------3----0h1-3s5-3-----3r0------3-1-0-----------1---0p1h0---------------0~---|
B----------------------3---------3----------3s1-------1---1-----3~--1-0-0h1~--1~---|
G-0---0----------------0---0------------------0---0-------------0~------------0~---|
D-----------------------------------------------------------------------------2~---|
A-3-3---3----3-0---2---2-2-------2--2-0---------------------------------------3~---|
E---------------------------------------------1-1--1---1--------3~-----------------|
Tap to rate this tab
 
# A B C D E F G H I J K L M N O P Q R S T U V W X Y Z