Song name
# A B C D E F G H I J K L M N O P Q R S T U V W X Y Z

Misc Unsigned Bands - Go Onmake A Mess - Stop And Breathe tab

"Stop And Breathe"  Written For: Go On,Ma

Standard Tuning

Intro/Verse

E|--------------------------------------------------------------|
B|--4-0-4-0-5-4-------------------------------------------------|
G|--4-0-4-0-5-4---X however many times it need to be repeated---|
D|--4-0-4-0-5-4-------------------------------------------------|
A|--------------------------------------------------------------|
E|--------------------------------------------------------------|


Chorus:

E|--------------------------------------------------------------|
B|--------------------------------------------------------------|
G|--------------------------------------------------------------|
D|--55555555--7777777--55555555---777--9999---------------------|
A|--55555555--7777777--55555555---777--0000---------------------|
E|--33333333--5555555--33333333---555--7777---------------------|


Bridge:

E|--------------------------------------------------------------|
B|--1111111--2222222--333--55-----------------------------------|
G|--0000000--2222222--000--00-----------------------------------|
D|--2222222--2222222--111--33-----------------------------------|
A|--3333333-----------------------------------------------------|
E|--------------------------------------------------------------|

Tap to rate this tab
 
# A B C D E F G H I J K L M N O P Q R S T U V W X Y Z