Song name
# A B C D E F G H I J K L M N O P Q R S T U V W X Y Z

Misc Unsigned Bands - Verax - In Your Eyes tab

I couldn’t find a tab of verax, so I made one myself. This is my first tab. I hope you enjoy it.
If I did something wrong you can mail me to: replay67@hotmail.com
Greetz from Holland,

Verax- in your eyes.


-Intro-
(3x)
|--------------------------------------------------------------------|
|--------------------------------------------------------------------|
|-6-6-6--9--7--3-3-3--2----------------------------------------------|
|-6-6-6--9--7--3-3-3--2----------------------------------------------|
|-4-4-4--7--5--1-1-1--4----------------------------------------------|
|--------------------------------------------------------------------|

|--------------------------------------------------------------------|
|--------------------------------------------------------------------|
|-6-6-6--9--7--3-----------------------------------------------------|
|-6-6-6--9--7--3-----------------------------------------------------|
|-4-4-4--7--5--1-----------------------------------------------------|
|--------------------------------------------------------------------|

|--------------------------------------------------------------------|
|--14-12-14---14-12-14---14-12-14---14-12-14-12-8--------------------|
|--------------------------------------------------------------------|
|--------------------------------------------------------------------|
|--------------------------------------------------------------------|
|--------------------------------------------------------------------|


-Riff 1-
|--------------------------------------------------------------------|
|--------------------------------------------------------------------|
|-----5-5-5-5-5-5-6-6-6-6-6-6-8-8------------------------------------|
|-----5-5-5-5-5-5-6-6-6-6-6-6-8-8------------------------------------|
|--------------------------------------------------------------------|
|--------------------------------------------------------------------|

- Chorus -
|----------------------------------------------------------------------|
|----------------------------------------------------------------------|
|----------------------------------------------------------------------|
|---4-----6-----8------6-----4-----6-----8------6----------------------|
|---6-----8-----10-----8-----6-----8-----10-----8----------------------|
|---6-----8-----10-----8-----6-----8-----10-----8----------------------|


- A little riff after the chorus, believe it sounds like this -
|----------------------------------------------------------------------|
|----------------------------------------------------------------------|
|----------------------------------------------------------------------|
|----------------------------------------------------------------------|
|--5---8-7---7-8-10-12-12-13-12-7-8-7---------- -----------------------|
|----------------------------------------------------------------------|


- A riff after the seconde chorus it is played twice-
|--------------------------------------------------------------------|
|--------------------------------------------------------------------|
|--8-8-5-8-8-5-8-8-5-8-8-5-7-7-4-7-7-4-7-7-4-7-7-4-------------------|
|--------------------------------------------------------------------|
|--------------------------------------------------------------------|
|--------------------------------------------------------------------|

|--------------------------------------------------------------------|
|--------------------------------------------------------------------|
|--8-8-5-8-8-5-8-8-5-8-8-5-11-11-7-11-11-7-12-12-8-12-12-8-----------|
|--------------------------------------------------------------------|
|--------------------------------------------------------------------|
|--------------------------------------------------------------------|

- Outro -
|----------------------------------------------------------------------|
|----------------------------------------------------------------------|
|-6-6-6--9--7--3-3-3--2------------------------------------------------|
|-6-6-6--9--7--3-3-3--2------------------------------------------------|
|-4-4-4--7--5--1-1-1--4------------------------------------------------|
|----------------------------------------------------------------------|

|----------------------------------------------------------------------|
|--14-12-14---14-12-14---14-12-14---14-12-14-12-8----------------------|
|----------------------------------------------------------------------|
|----------------------------------------------------------------------|
|----------------------------------------------------------------------|
|----------------------------------------------------------------------|

- Rick Veldhuis -
Tap to rate this tab
# A B C D E F G H I J K L M N O P Q R S T U V W X Y Z