Guitaretab - guitar tabs
Song name
# A B C D E F G H I J K L M N O P Q R S T U V W X Y Z

Misc Unsigned Bands - Sticky Lipz - Gettin Ready tab

Tuning: EADGbe

This is 100% how the swedish sleaze/glam band Sticky Lpz plays their song Gettin' 
Good Luck ! http://www.myspace.com/stickylipz

b=bend
/=slide
h=hammer on
p=pull off
rb=rebend
~=vibrato

Intro

e|-------------------------------------------------------------------|
B|-------------------------------------------------------------------|
G|-------------------------------------------------------------------|
D|---4-/-6-/-4--4--4-/-6-/-4--6--4-/-6-/-4--4--4---------------------|
A|---4-/-6-/-4--2--4-/-6-/-4--4--4-/-6-/-4--2--4--2-2-2-2-2-2-2------|
E|---2-/-4-/-2-----2-/-4-/-2-----2-/-4-/-2-----2--0-0-0-0-0-0-0------| x3

Verse
(listen for strumming)

Gettin' Ready for tonight....
e|-------------------------------------|
B|-------------------------------------|
G|-------------------------------------|
D|--4----6----2----4-2-4-2-------------|
A|--4----6----2----2-0-2-0-------------|
E|--2----4----0------------------------| x2

The Refrain is exactly as the verse but played open (not muted)

Bridge parts

e|--------------------------------------|
B|--------------------------------------|
G|--------------------------------------|
D|---4----6----6----8-------------------|
A|---4----6----4----6-------------------|
E|---2----4-----------------------------|
[ Tab from: http://www.guitaretab.com/m/misc-unsigned-bands/108877.html ]
Solo
the hammer ons and pull offs in the solo is tremolo picking for some seconds
you must listen to the song to get the timing well.

e|---------------------------------------2-4-5--2h4h5p4p2-(tremolo)-4b----|
B|---------------------------------2-3-5----------------------------------|
G|--------------------------4b-4-2----------------------------------------|
D|------2-4~-4-4-4-2-----2------------------------------------------------|
A|--2-4--------------4-2--------------------------------------------------|
E|------------------------------------------------------------------------|

e|-5-4-2-4-5-4-2--7-9-10-9-7~-7-9-10-9-7~-9b--10-9-7-9-10-9-7--7h9h10p9p7-|
B|------------------------------------------------------------------------|
G|------------------------------------------------------------------------|
D|------------------------------------------------------------------------|
A|------------------------------------------------------------------------|
E|------------------------------------------------------------------------|

e|-9b-10-9-7-------------------------------|
B|-----------9-7-9b-9-7~-------------------|
G|-----------------------------------------|
D|-----------------------------------------|
A|-----------------------------------------|
E|-----------------------------------------|

Thats it Good Luck !

Order
------
Intro
Verse
Bridge part
Refrain
Verse
Bridge part
Solo
Verse
Refrain
Related for Sticky Lipz - Gettin Ready tab