Song name
# A B C D E F G H I J K L M N O P Q R S T U V W X Y Z

Misc Unsigned Bands - Seryoga - King Ring tab

I'm pretty sure this is 100% correct

Intro
Synths
E|------------------|
B|------------------|
G|----------4-------|
D|-2-5-4-5----5-4-5-|
A|------------------|
E|------------------|

Guitar
E|----------------------------------|
B|----------------------------------|
G|-----------------3333333333333333-|
D|2222222222222222-3333333333333333-|
A|2222222222222222-1111111111111111-|
E|0000000000000000------------------|
pm----------------------------------|

Horns
E|-----------|
B|-----------|
G|-------4-3-|
D|-2-4-5-----|
A|-----------|
E|-----------|


Verse
Synths
E|------------------|
B|------------------|
G|----------4-------|
D|-2-5-4-5----5-4-5-|
A|------------------|
E|------------------|

Guitar
E|------------------------|
B|------------------------|
G|------------3-3-33-3-3--|
D|-2-2-22-2-2-3-3-33-3-3--|
A|-2-2-22-2-2-1-1-11-1-1--|
E|-0-0-00-0-0-------------|


Chorus
Synths
E|------------------|
B|------------------|
G|----------4-------|
D|-2-5-4-5----5-4-5-|
A|------------------|
E|------------------|

Guitar
E|----------------------------------|
B|----------------------------------|
G|-----------------3333333333333333-|
D|2222222222222222-3333333333333333-|
A|2222222222222222-1111111111111111-|
E|0000000000000000------------------|
pm----------------------------------|

Horns
E|-----------|
B|-----------|
G|-------4-3-|
D|-2-4-5-----|
A|-----------|
E|-----------|
Tap to rate this tab
# A B C D E F G H I J K L M N O P Q R S T U V W X Y Z