Song name
# A B C D E F G H I J K L M N O P Q R S T U V W X Y Z

Misc Unsigned Bands - Lucas Abbott - You Are Not Alone tab

This is it. Another song I wrote. If you wanna check out the song go on youtube and type 
Lucas Abbott - You are not alone. So here it is.

Intro/verse

e |-5-5-5-5-5-5-5-5--0-0-0-0-0-0-0-0-|
B |-7-7-7-7-7-7-7-7--7-7-7-7-7-7-7-7-|
G |-7-7-7-7-7-7-7-7--6-6-6-6-6-6-6-6-|
D |----------------------------------|
A |----------------------------------|
E |----------------------------------|

We’re twisting, falling, sinking
Wishing to be free from this world
We’re not alone you know

Sinking, drifting, wishing
Waiting to be united once again
We’re pulled along you know

Prechorus

e |-3-3-3-3-3-3-3-3-3-3-3-3-3-3-3-3--2-2-2-2-2-2-2-2-0-0-0-0-0-0-0-0-|
B |-5-5-5-5-5-5-5-5-5-5-5-5-5-5-5-5--3-3-3-3-3-3-3-3-3-3-3-3-2-2-2-2-| x2 (hold 022 on
G |-4-4-4-4-4-4-4-4-4-4-4-4-4-4-4-4--2-2-2-2-2-2-2-2-2-2-2-2-2-2-2-2-|     second time)
D |-5-5-5-5-5-5-5-5-5-5-5-5-5-5-5-5----------------------------------|
A |------------------------------------------------------------------|
E |------------------------------------------------------------------|


You are not alone
You are not alone (alone in falsetto this time)

Chorus

(All for a count of 8 except G)
e |-------------------------------3-------|
B |----------------------2--3--3--3--3--2-|
G |-7-----------7--------2--2--2--0--2--2-|
D |-7--5--4--7--7--5--4--2--x--2--0--2--2-|
A |-5--5--4--7--5--5--4-----2-----2-------|
E |----3--2--5-----3--2-----------3-------|

Waiting for the world to bring us back again
We've waited for so long
Wishing for blue skies
Will the darkness ever end
And... We're waiting on the hill
Wishing for our lives to change
Yeah... you are not alone

Intro/verse again

Feeding, losing, finding
Lost control and headed for crash land
You out of your control
Driving, pushing, fighting
Struggling to get out of this place
To somewhere warm, not cold

Prechorus
You are not alone
You are not alone (alone in falsetto this time)

Chorus
Waiting for the world to bring us back again
We've waited for so long
Wishing for blue skies
Will the darkness ever end
And... We're waiting on the hill
Wishing for our lives to change
Yeah... you are not alone

Bridge (same guitar as second half of chorus)
Drowning inside
We're stuck in reverse and we can't get out
There's no way out
Oh... leaving behind the only thing
That makes you smile
That holds back, the tears

Outro

e |---------------|
B |-3--3--3--3--3-| Same picking pattern throughout outro
G |---2--2--2--2--|
D |---------------|
A |--2--2--2--2---|
E |---------------|

Bm7 A7 G7 x2 End on G7
Tap to rate this tab
# A B C D E F G H I J K L M N O P Q R S T U V W X Y Z