Song name
# A B C D E F G H I J K L M N O P Q R S T U V W X Y Z

Misc Unsigned Bands - Epitaph - Fall On tab

-------------------------------------------------------------------------------
			     Fall On - Epitaph
-------------------------------------------------------------------------------
Tabbed by: Clayton Sackett
Email:cdsackett@gmail.com

Tuning: Drop D

==Intro==
e|-0-0-0-0-0-----0--0-0-0-0-0-0-0-0-0---0-0-0-0-x-0--0--0-------------|
B|-0-0-0-0-0---0-0--0-0-0-0-0-0-0-0-0---0-0-0-0-x-0--0--0-------------|
G|-0-0-0-0-0-0-0-0--5-5-5-5-5-5-5-5-7/9-9-9-9-9-x-0--0--0-------------|
D|-2---2---2-2-2-2--5-5-5-5-5-5-5-5-7/9-9-9-9-9-x-2--2--2-------------|
A|-2---2---2-2-2-2--3-3-3-3-3-3-3-3-5/7-7-7-7-7-x-2--2--2-------------|
D|-2---2---2-2-2-2------------------5/7-7-7-7-7-x-2--2--2-------------|
  
[----------------------------X2--------------------------]

==Chorus===========>
                        
                    
Tap to rate this tab
# A B C D E F G H I J K L M N O P Q R S T U V W X Y Z