Song name
# A B C D E F G H I J K L M N O P Q R S T U V W X Y Z

Misc Unsigned Bands - The Whomping Willows - Draco And Harry tab

Hey, this is my first proper tab so if it sucks then at least you've been warned. It's
power chords and Bar chords.
Standard tuning

Intro and verse:

P.M.
e--------------------------------------------------------------|
B--------------------------------------------------------------|
G--------------------------------------------------------------|
D---12-12-12-12-12-12-12-12--7-7-7-7-7-7-7-7--9-9-9-9-9-9-9-9--|
A---12-12-12-12-12-12-12-12--7-7-7-7-7-7-7-7--9-9-9-9-9-9-9-9--|
E---10-10-10-10-10-10-10-10--5-5-5-5-5-5-5-5--7-7-7-7-7-7-7-7--|

e-------------------|
B-------------------|
G-------------------|
D---5-5-5-5-5-5-5-5-|
A---5-5-5-5-5-5-5-5-|
E---3-3-3-3-3-3-3-3-|

Pre-chorus('There's nothing wrong with it') Post-chorus (bit after chorus that
goes 'In Loooovvvveee...'):

e-----------------------------|
B-----------------------------|
G-----------------------------|
D---12...--7-7-7-7--5-5-5-5---|
A---12...--7-7-7-7--5-5-5-5---|
E---10...--5-5-5-5--3-3-3-3---|

Chorus:

e---10-10-10-10-10-10-10-10--5-5-5-5-5-5-5-5--7-7-7-7-7-7-7-7--|
B---10-10-10-10-10-10-10-10--5-5-5-5-5-5-5-5--7-7-7-7-7-7-7-7--|
G---10-10-10-10-10-10-10-10--5-5-5-5-5-5-5-5--7-7-7-7-7-7-7-7--|
D---12-12-12-12-12-12-12-12--7-7-7-7-7-7-7-7--9-9-9-9-9-9-9-9--|
A---12-12-12-12-12-12-12-12--7-7-7-7-7-7-7-7--9-9-9-9-9-9-9-9--|
E---10-10-10-10-10-10-10-10--5-5-5-5-5-5-5-5--7-7-7-7-7-7-7-7--|

e---3-3-3-3-3-3-3-3----------------------------------------|
B---3-3-3-3-3-3-3-3----------------------------------------|
G---3-3-3-3-3-3-3-3----------------------------------------|
D---5-5-5-5-5-5-5-5----12--12-12-12-12--7-7-7-7--5-5-5-5---|
A---5-5-5-5-5-5-5-5----12--12-12-12-12--7-7-7-7--5-5-5-5---|
E---3-3-3-3-3-3-3-3----10--10-10-10-10--5-5-5-5--3-3-3-3---|

Bridge:

e---------------------------------------------------------------|
B---------------------------------------------------------------|
G---------------------------------------------------------------|
D---2--2--2-2-2-2-2-2-/-4--4--4-4-4-4-4-4-/-5--5--5-5-5-5-5-5-/-|
A---2--2--2-2-2-2-2-2-/-4--4--4-4-4-4-4-4-/-5--5--5-5-5-5-5-5-/-|
E---0--0--0-0-0-0-0-0-/-2--2--2-2-2-2-2-2-/-3--3--3-3-3-3-3-3-/-|

e--------------------------|
B--------------------------|
G--------------------------|
D--11-11-11-11-11-11-18-14-|
A--11-11-11-11-11-11-18-14-|
E--9--9--9--9--9--9--16-14-|

/= Slide
...= Let ring
P.M.= Palm Mute

Official Site:  http://www.myspace.com/thewhompingwillows
Tap to rate this tab
# A B C D E F G H I J K L M N O P Q R S T U V W X Y Z