Song name
# A B C D E F G H I J K L M N O P Q R S T U V W X Y Z

Misc Unsigned Bands - Conceiled Enstrings - Defiance tab

Warning!! repeated parts are not written

Legend
___________________________________________________
hammer on             h
pull off              p
vibrato               ~
bend                  b
release               r
ghost note           (#)
palm mute             .
Artificial Harmonic   *

||---------------------|----------------------------------------------|
||---------------------|----------------------------------------------|
||---------------------|----------------------------------------------|
||------------2--0-----|------5-------4--3--------0----------5--------|
||-0---3---2---3---3(0)|---4-----4---2----------4---4---2--0----5-4---|
||--0---3---2----------|--0--------0---------0--------0-------0-------|

||---------------------------------------|---------------------|
||---------------------------------------|---------------------|
||---------------------------------------|---------------------|
||-0--------------------------3------1-0-|----7----5--3-1-0-0~-|
||-0--------------------------3------1-0-|----5----3--1-1-0-0~-|
||-0-0-0-0-0-0-0-0-0-0-0-3333-3-1111-1-0-|-000---00--0------0~-|
pm   . . . . . . . . . . ....   ....   .   ...   ..  .

||-------------------------------------------------|
||-------------------------------------------------|
||-------------------------------------------------|
||--------------------2--------2--------4*brbrbrbr-|
||----5h7p5---2h3p2----3-5-3-2--3-5-3-2------------|
||-000-----000-----000-----------------------------|
pm ...     ...     ...

||----------------------------------------------------------------|
||----------------------------------------------------------------|
||----------------------------------------------------------------|
||-----4brbrbrbr----4brbrbrbr----1brbrbrbr--------------5brbrbrbr-|
||---3------------3------------3----------2brbr3brbr--3-----------|
||-1------------1------------1----------------------0-------------|
pm . .          . .          . .                    . .

--------------------------------------|
--------------------------------------|
--------------------------------------|
-----6brbrbrbr----1brbrbrbr-----------|
---3------------3----------2brbr3brbr-|
-0------------0-----------------------|
pm . .        . .

Tapping
||--------------------------------------------------------------------|
||--------------------------------------------------------------------|
||--------------------------------------------------------------------|
||---------------------------------------------h10p7h9(x8)h14p7h------|9(x4)
||-h12p3h7(x8)h11p3h7(x8)h11p3h6(x8)h11p3h5(x8)-----------------------|
||--------------------------------------------------------------------|

--------------------------------------------------------------------------|
--------------------------------------------------------------------------|
-----------------------h9p3h5(x8)h7p3h5(x8)h7p3h4(x8)h6p3h4(x8)h6p3h------|5(x8)
-h12p7h9(x4)h10p7h9(x8)---------------------------------------------------|
--------------------------------------------------------------------------|
--------------------------------------------------------------------------|

on the last (h4p1h3), play it slower as if winding down
---------------------h4p1h3(x8)----------h4p1h3(x4)------------------------|
-----------h5p2h4(x8)----------h4p1h3(x4)----------h4p1h3(x4)--------------|
-h5p2h4(x8)--------------------------------------------------h4p1h3(x4)----|
---------------------------------------------------------------------------|
---------------------------------------------------------------------------|
---------------------------------------------------------------------------|
Tap to rate this tab
 
# A B C D E F G H I J K L M N O P Q R S T U V W X Y Z