Song name
# A B C D E F G H I J K L M N O P Q R S T U V W X Y Z

Misc Unsigned Bands - Academic Rebellion - Scrattch tab

-----------------------------------------------------------------------------
			     Scrattch - Academic Rebellion
-----------------------------------------------------------------------------
Tabbed by:Clancy 13

i kik u o ass, well maybe...

Tuning:standard

e|------------------------------------------------------|
B|------------------------------------------------------|
G|------------------------------------------------------|
D|--9-9-12-12-12121212-7-7-X-9--------------------------|
A|--9-9-12-12-12121212-7-7-X-9--------------------------|
E|--7-7-10-10-10101010-5-5-X-7--------------------------|

e|------------------------------------------------------|
B|------------------------------------------------------|
G|------------------------------------------------------|
D|--9-9-12-12-12121212-7-7-X-9--------------------------|
A|--9-9-12-12-12121212-7-7-X-9--------------------------|
E|--7-7-10-10-10101010-5-5-X-7--------------------------|

e|------------------------------------------------------|
B|------------------------------------------------------|
G|------------------------------------------------------|
D|--9-9-12-12-12121212-7-7-X-9--------------------------|
A|--9-9-12-12-12121212-7-7-X-9--------------------------|
E|--7-7-10-10-10101010-5-5-X-7--------------------------|

e|------------------------------------------------------|
B|------------------------------------------------------|
G|------------------------------------------------------|
D|--9-9-12-12-12121212-7-7-X-9--------------------------|
A|--9-9-12-12-12121212-7-7-X-9--------------------------|
E|--7-7-10-10-10101010-5-5-X-7--------------------------|

ill work out the rest later :)
Tap to rate this tab
# A B C D E F G H I J K L M N O P Q R S T U V W X Y Z