Song name
# A B C D E F G H I J K L M N O P Q R S T U V W X Y Z

Misc Unsigned Bands - Concept - Goodnight tab

Tuning: Drop C on Acoustic Guitar
        Drop B on Electric Guitar


Intro:

E|--------------------------------------|
B|-8-7-7-0-5-3----8-7-8/10-7-5-3--------|
G|-------------4-----------------4------|
D|--------------------------------------|
A|-7---5---3------7---5------3----------|
E|-------------5-----------------5------|


Verse 1/2:

Just repeat the intro through the two verses

Break:

E|----------------|
B|-----5-3--------|
G|---------4------|
D|-4-2------------|   Repeat X2
A|-----3----------|
E|-2-------5------|  


Chorus:

E|-------------------------------------------------------------|
B|-5-7-7-8-8-7-7-5--5-7-8-7-8-7-7-5--5-7-7-8-8-7-7-5-----5-3---|
G|-----------------------------------------------------------4-|
D|---------------------------------------------------4-2-------|
A|-3---5---7---5----3---6---7---5----3---5---7---5-------3-----|
E|---------------------------------------------------2-------5-|




Song Order:

Intro
Verse
Break
Verse
Chorus
Break
Intro x3
Break x3
END
Tap to rate this tab
# A B C D E F G H I J K L M N O P Q R S T U V W X Y Z