Guitaretab - guitar tabs
Song name
# A B C D E F G H I J K L M N O P Q R S T U V W X Y Z

Misc Unsigned Bands - H3alth - Black Sky tab

----------------------------------------------------------------------------
			     h3atlh  black sky
----------------------------------------------------------------------------
Tabbed by: IIrO
Email:

Tuning: Standard

intro
Guitar 1
e|------------------------------------------------------------|
B|-3-3/10--10-8-6-3-3/10-10-8-6-5-9--8-6-5-10-3-------------|
G|-2-2/9---9--7-5-2-2/9--9--7-5-4-10-7-5-4-9--2-------------|
D|------------------------------------------------------------|
A|------------------------------------------------------------|
E|------------------------------------------------------------|

e|-------------------------------------------------------------|
B|-3-3/10--10-8-6-3-3/10-10-8-6-5-9--8-6-5-10-3~-------------|
G|-2-2/9---9--7-5-2-2/9--9--7-5-4-10-7-5-4-9-2~-------------|
D|-------------------------------------------------------------|
A|-------------------------------------------------------------|
E|-------------------------------------------------------------|
[ Tab from: http://www.guitaretab.com/m/misc-unsigned-bands/108974.html ]
Guitar 2
e|-------------------------------------------------------------------------|
B|-------------------------------------------------------------------------|
G|-3-3/10--10-8-6-3-3/10-10-8-6-5-9--8-6-5-10-3~-------------------------|
D|-------------------------------------------------------------------------|
A|-------------------------------------------------------------------------|
E|-------------------------------------------------------------------------|

e|-------------------------------------------------------------------------|
B|-------------------------------------------------------------------------|
G|-------------------------------------------------------------------------|
D|-3--3/10--10-8-6-3-3/10-10-8-6-5-9--8-6-5-10-3~-------------------------|
A|-------------------------------------------------------------------------|
E|-------------------------------------------------------------------------|



| /  slide up
| \  slide down
| h  hammer-on
| p  pull-off
| ~  vibrato
| +  harmonic
| x  Mute note
Related for H3alth - Black Sky tab