Song name
# A B C D E F G H I J K L M N O P Q R S T U V W X Y Z

Misc Unsigned Bands - Das Brennt Reich - My Bleeding Heart tab

e|-----------------|------------------|
B|-----------------|------------------|
G|-----------------|------------------|
D|---9---9---9---9-|---10--10--10--10-|
A|-7---7---7---7---|-7---7---7---7----|
E|-----------------|------------------|

e|-----------------|-----------------|
B|-----------------|-----------------|
G|-----------------|-----------------|
D|---7---7---7---7-|---9---9---9---9-|
A|-7---7---7---7---|-7---7---7---7---|
E|-----------------|-----------------|

e|-----------------|-----------------|
B|-----------------|-----------------|
G|-----------------|-----------------|
D|-----------------|-----------------|
A|---2---2---2---2-|---3---3---3---3-|
E|-0---0---0---0---|-0---0---0---0---|

e|-----------------|-----------------|
B|-----------------|-----------------|
G|-----------------|-----------------|
D|-----------------|-----------------|
A|---0---0---0---0-|---2---2---2---2-|
E|-0---0---0---0---|-0---0---0---0---|

e|-----------------------------|
B|-----------------------------|
G|-----------------------------|
D|-----2-----0-----2-----3-2---|
A|-----2-----0-----2-----3-2---|
E|-0-0---0-0---0-0---0-0-------|

e|---------------------------|
B|---------------------------|
G|---------------------------|
D|-----2-----0-----2---3-5-3-|
A|-----2-----0-----2---3-5-3-|
E|-0-0---0-0---0-0---0-------|

e|-----------------------------|
B|-----------------------------|
G|-----------------------------|
D|-----2-----0-----2-----3-2---|
A|-----2-----0-----2-----3-2---|
E|-0-0---0-0---0-0---0-0-------|




e|-------------------------|
B|-------------------------|
G|-------------------------|
D|-----5---3---2---3-2-0-0-|
A|-----5---3---2---3-2-0-0-|
E|-0-0---0---0---0-------0-|

e|-----------------|------------------|
B|-----------------|------------------|
G|-----------------|------------------|
D|---9---9---9---9-|---10--10--10--10-|
A|-7---7---7---7---|-7---7---7---7----|
E|-----------------|------------------|

e|-----------------|-----------------|
B|-----------------|-----------------|
G|-----------------|-----------------|
D|---7---7---7---7-|---9---9---9---9-|
A|-7---7---7---7---|-7---7---7---7---|
E|-----------------|-----------------|

e|-----------------|-----------------|
B|-----------------|-----------------|
G|-----------------|-----------------|
D|-----------------|-----------------|
A|---2---2---2---2-|---3---3---3---3-|
E|-0---0---0---0---|-0---0---0---0---|

e|-----------------|-----------------|
B|-----------------|-----------------|
G|-----------------|-----------------|
D|-----------------|-----------------|
A|---0---0---0---0-|---2---2---2---2-|
E|-0---0---0---0---|-0---0---0---0---|

e|-----------------------------|
B|-----------------------------|
G|-----------------------------|
D|-----2-----0-----2-----3-2---|
A|-----2-----0-----2-----3-2---|
E|-0-0---0-0---0-0---0-0-------|

e|---------------------------|
B|---------------------------|
G|---------------------------|
D|-----2-----0-----2---3-5-3-|
A|-----2-----0-----2---3-5-3-|
E|-0-0---0-0---0-0---0-------|

e|-----------------------------|
B|-----------------------------|
G|-----------------------------|
D|-----2-----0-----2-----3-2---|
A|-----2-----0-----2-----3-2---|
E|-0-0---0-0---0-0---0-0-------|


e|-------------------------|
B|-------------------------|
G|-------------------------|
D|-----5---3---2---3-2-0-0-|
A|-----5---3---2---3-2-0-0-|
E|-0-0---0---0---0-------0-|

e|-------------------------------------|
B|-10--10-12--10--10-13--10--10-12(13)-|
G|-------------------------------------|
D|-------------------------------------|
A|-------------------------------------|
E|-------------------------------------|

e|-------------------------------------|
B|-(13)-10-----------------------------|
G|----------13--11-10-11-13-11-10-11~~~|
D|-------------------------------------|
A|-------------------------------------|
E|-------------------------------------|

e|-----------------------------|
B|-----------------------------|
G|-----------------------------|
D|-----2-----0-----2-----3-2---|
A|-----2-----0-----2-----3-2---|
E|-0-0---0-0---0-0---0-0-------|

e|---------------------------|
B|---------------------------|
G|---------------------------|
D|-----2-----0-----2---3-5-3-|
A|-----2-----0-----2---3-5-3-|
E|-0-0---0-0---0-0---0-------|

e|-----------------------------|
B|-----------------------------|
G|-----------------------------|
D|-----2-----0-----2-----3-2---|
A|-----2-----0-----2-----3-2---|
E|-0-0---0-0---0-0---0-0-------|


e|-------------------------|
B|-------------------------|
G|-------------------------|
D|-----5---3---2---3-2-0-0-|
A|-----5---3---2---3-2-0-0-|
E|-0-0---0---0---0-------0-|

e|-----------------------------|
B|-----------------------------|
G|-----------------------------|
D|-----2-----0-----2-----3-2---|
A|-----2-----0-----2-----3-2---|
E|-0-0---0-0---0-0---0-0-------|

e|---------------------------|
B|---------------------------|
G|---------------------------|
D|-----2-----0-----2---3-5-3-|
A|-----2-----0-----2---3-5-3-|
E|-0-0---0-0---0-0---0-------|

e|-----------------------------|
B|-----------------------------|
G|-----------------------------|
D|-----2-----0-----2-----3-2---|
A|-----2-----0-----2-----3-2---|
E|-0-0---0-0---0-0---0-0-------|


e|-------------------------|
B|-------------------------|
G|-------------------------|
D|-----5---3---2---3-2-0-0-|
A|-----5---3---2---3-2-0-0-|
E|-0-0---0---0---0-------0-|

e|--------------------------|
B|--------------------------|
G|--------------------------|
D|--------------------------|
A|----14~----15~----14-(15)-|
E|-12~----12~----12---------|

e|--------------------------|
B|--------------------------|
G|--------------------------|
D|--------------------------|
A|----14~----15~----15-(16)-|
E|-12~----12~----12---------|


[start this off slowly, then repeat, and increase speed until you are picking as fast as you can]
e|----------------------|
B|----------------------|
G|----------------------|
D|----------------------| x6
A|-12-12-14-12-12-12-15-|
E|----------------------|

e|-----------------------|
B|-----------------------|
G|-----------------------|
D|-----------------------| x4
A|-10t-10t-12-10t-10t-13-|
E|-----------------------|

e|----------------------|
B|----------------------|
G|----------------------|
D|----------------------| x4
A|-12-12-14-12-12-12-15-|
E|----------------------|

e|-----------------------|
B|-----------------------|
G|-----------------------|
D|-----------------------| x4
A|-14t-14t-15-14t-14t-16-|
E|-----------------------|

e|-----------------------|
B|-----------------------|
G|-----------------------|
D|-----------------------| x4
A|-15t-15t-16-15t-15t-17-| 
E|-----------------------|

e|-----------------------|
B|-----------------------|
G|-----------------------|
D|-----------------------| x12
A|-17t-17t-19-17t-17t-20-|
E|-----------------------|

e|-------------------------------------|
B|-------------------------------------|
G|-------------------------------------|
D|-------------------------------------|
A|-20-19-17-19-17-15-17-15-14-15-14-12-|
E|-------------------------------------|

e|--------------------------------------------------------|
B|--------------------------------------------------------|
G|--------------------------------------------------------|
D|--------------------------------------------------------|
A|-12t-14t-15t-14t-15t-17t-15t-17t-18t-17t-18t-20-(22)~~~~|
E|--------------------------------------------------------|

e|-------------------------|
B|-------------------------|
G|-------------------------|
D|---2~~~~~0~~~~~2~~~~~3-0-|
A|---2~~~~~0~~~~~2~~~~~3-0-|
E|-0~~~~~0~~~~~0~~~~~0-----|

e|-----------------------------|
B|-----------------------------|
G|-----------------------------|
D|-----2-----0-----2-----3-2---|
A|-----2-----0-----2-----3-2---|
E|-0-0---0-0---0-0---0-0-------|

e|---------------------------|
B|---------------------------|
G|---------------------------|
D|-----2-----0-----2---3-5-3-|
A|-----2-----0-----2---3-5-3-|
E|-0-0---0-0---0-0---0-------|

e|---------------------------|
B|---------------------------|
G|---------------------------|
D|-----2-----0-----2-----3-2-|
A|-----2-----0-----2-----3-2-|
E|-0-0---0-0---0-0---0-0-----|


e|------------------------------|
B|------------------------------|
G|------------------------------|
D|-----5---3---2---3-2-0-0~~~~~~|
A|-----5---3---2---3-2-0-0~~~~~~|
E|-0-0---0---0---0-------0~~~~~~|
Tap to rate this tab
 
# A B C D E F G H I J K L M N O P Q R S T U V W X Y Z