Song name
# A B C D E F G H I J K L M N O P Q R S T U V W X Y Z

Misc Unsigned Bands - Halbpenner - Halbpenner tab

HalbPenner - Halbpenner

Eines der ersten HalbPenner songs...ein muss!!!!

 
Das ist eine Grobe version!. Es fehlen ein paar einzelheiten und die 3 Gitarrensolos.
Es kommt noch eine überarbeitete Ausführung.

Legende:
  P   = pull off
  x   = Gohst Note
  /   = slide
\PM./ = Palm Mute


riff
               16*      
/ ------------------------- /   
/+-------------------------+/
/ ------------------------- /
/ ----------3--x--3--x--3-- /
/+-1p0------3--x--3--x--3--+/
/ -----3p0--1--x--1--x--1-- /


Verse
       20*
   \----PM.-------/
/ ----------------- /
/+-----------------+/
/ ----------------- /
/ -3-3-3-3-3-3-3-3- /
/+-3-3-3-3-3-3-3-3-+/
/ -1-1-1-1-1-1-1-1- /




Refrain
                                      5*
/ ------------------------------------------ /
/+------------------------------------------+/
/ -1--1--/4-4-4--4--4--3-3-3--3--2-2-2--2--2 /
/ -2--2--/5-5-5--5--5--4-4-4--4--3-3-3--3--3 /
/+-2--2--/5-5-5--5--5--4-4-4--4--3-3-3--3--3+/
/ -0--0---0-0-0--0--0--0-0-0--0--0-0-0--0--0 /


Text:

1.verse 

In der Früh um 4, zischt das erste Bier.
Wie geht es dir, ahhh Kopfschmerzen wie ein Tier
wieso was hast du gemacht.
Ne ganze Nacht lang Geld mit Freunden verprasst
ja auf was??
Auf ANIMATOR

Refrain

Halbpenner   Halbpenner   Halbpenner  Halbpenner

2.Verse

Du stehst auf und kannst nicht laufen
denn gestern warst du ja beim saufen
weder alki noch Asket
auf das ANI Ewig lebt

Refrain

Tap to rate this tab
# A B C D E F G H I J K L M N O P Q R S T U V W X Y Z