Song name
# A B C D E F G H I J K L M N O P Q R S T U V W X Y Z

Misc Unsigned Bands - Rurutia - Selenite tab

Intro x2:
0----x-----0-----x---|
1----3-----1-----3---|
2----0-----2-----0---|
2----0-----2-----0---|
0----2-----0-----2---|
-----3-----------3---|


Aa  yurameku tomoshibi gareki no machi ni
0-x-------0---------x------------------0--|
1-3-------1---------3------------------1--|
2-0-------0---------0------------------2--|
2-0-------2---------0------------------2--|
0-2-------3---------2------------------0--|
--3-----------------3---------------------|

Nari hibiku toumei na shirabe wa negai wo tatae
0---x----0------------x-----------------------x---|
1---3----1------------3-----------------------3---|
2---0----0------------0-----------------------2---|
2---0----2------------0-----------------------0---|
0---2----3------------2-----------------------0---|
----3-----------------3-----------------------2---|

Ima yake ochita sora wa mizu no soko he to shizunde iku
---------------------x-----------------0-------------x-|
---------------------3-----------------1-------------3-|
-2-------------------0-----------------0-------------0-|
-3-------------------0-----------------2-------------0-|
-3-------------------2-----------------3-------------2-|
-1-------------------3-------------------------------3-|

Michite yuku tsuki akari  Aa
--1-------------------0---3---|
--1-------------------0---0---|
--2-------------------0---0---|
--3-------------------2---0---|
--3-------------------2---2---|
--1-------------------0---3---|

Chorus 1:

Aoku moeru yoru ga kimi wo someru hakanai hodo
--0----------3-----------------0------------3---|
--1----------0-----------------1------------3---|
--2----------0-----------------0------------0---|
--2----------0-----------------2------------0---|
--0----------2-----------------3------------2---|
-------------3------------------------------3---|

Hosoi kata wo kitsuku daite ite mo
---0-------------3--------------0--|
---1-------------0--------------1--|
---2-------------0--------------0--|
---2-------------0--------------2--|
---0-------------2--------------3--|
-----------------3-----------------|

Kimi wa kiete shimai sou de  Aa Aa   Aa  Aa
-----------3-------------0------x----0---x---|
-----------0-------------1------3----1---3---|
-----------0-------------2------0----2---0---|
-----------0-------------2------0----2---0---|
-----------2-------------0------2----0---2---|
-----------3--------------------3--------3---|


Aa   musuu no hoshi tsubu uchuu no hate de
0--x-------0----------x------------------0--|
1--3-------1----------3------------------1--|
2--0-------0----------0------------------2--|
2--0-------2----------0------------------2--|
0--2-------3----------2------------------0--|
---3------------------3---------------------|


Mi-tsuketa yo hajimete no deai wa memai sae oboe
0-x--------0--------------x--------------------x----|
1-3--------1--------------3--------------------3----|
2-0--------0--------------0--------------------2----|
2-0--------2--------------0--------------------0----|
0-2--------3--------------2--------------------0----|
--3-----------------------3--------------------2----|


Pre-chorus2:

Ima furi sosogu kin to gin no hikari no nami ni nomare
--------------------x---------------0---------------x-|
--------------------3---------------1---------------3-|
-2------------------0---------------0---------------0-|
-3------------------0---------------2---------------0-|
-3------------------2---------------3---------------2-|
-1------------------3-------------------------------3-|

Futari seri naru kawa he  Aa
--1-------------------0---3---|
--1-------------------0---0---|
--2-------------------0---0---|
--3-------------------2---0---|
--3-------------------2---2---|
--1-------------------0---3---|

Chorus 2:

Amaku oshi yosete wa boku no mune wo furuwaseru yo
---0----------3------------------0--------------3---|
---1----------0------------------1--------------3---|
---2----------0------------------0--------------0---|
---2----------0------------------2--------------0---|
---0----------2------------------3--------------2---|
--------------3---------------------------------3---|

Zutto kono mama zutto daite itai
---0------------3--------------0--|
---1------------0--------------1--|
---2------------0--------------0--|
---2------------0--------------2--|
---0------------2--------------3--|
----------------3-----------------|


kimi ga kiete shimawa nai you ni
-----------3------------------0--|
-----------0------------------1--|
-----------0------------------2--|
-----------0------------------2--|
-----------2------------------0--|
-----------3---------------------|

Solo:
-0----1----0----3-------0----1----3----x----0---|
-1----1----1----0-------1----1----1----3----3---|
-2----2----0----0-------2----2----0----0----2---|
-2----3----2----0-------2----3----2----0----0---|
-0----3----3----2-------0----3----3----2----0---|
------1---------3------------1---------3----2---|


Repeat Pre-chorus2

-3----3----3----3--|
-3----3----3----3--|
-0----0----0----0--|
-0----0----0----0--|
-2----2----2----2--|
-3----3----3----3--|

Repeat Chorus1

Repeat Chorus2

Outro x3, Fade off:
0----x-----0-----x---|
1----3-----1-----3---|
2----0-----2-----0---|
2----0-----2-----0---|
0----2-----0-----2---|
-----3-----------3---|
Tap to rate this tab
# A B C D E F G H I J K L M N O P Q R S T U V W X Y Z