Song name
# A B C D E F G H I J K L M N O P Q R S T U V W X Y Z

Misc Unsigned Bands - Son - Under Fire tab

This is a tab for the song under fire by sanctuary of the necromancer (S.O.N)

this is the intro for the song,
we havent written the rest yet but we will soon!

come check us out on myspace
http://www.myspace.com/sanctuaryofthenecromancer


e------------------------------------|
b------------------------------------|
g------------------------------------|
d------------------------------------|         x2
a------------------------------------|
e-0---0---3---3---5---5---7---7------|


e------------------------------------|
b------------------------------------|
g------------------------------------|
d-0-0-0--5-5-5--7-7-7--9-9-9-9-------|         x4
a-0-0-0--5-5-5--5-5-5--7-7-7-7-------|
e-0-0-0--3-3-3--5-5-5--7-7-7-7-------|


e------------------------------------|
b------------------------------------|
g------------------------------------|
d------------------------------------|         x2
a------------------------------------|
e-0---0---3---3---5---5---7---7------|

We'll have the rest of the song up soon!

thanks!
Tap to rate this tab
# A B C D E F G H I J K L M N O P Q R S T U V W X Y Z