Song name
# A B C D E F G H I J K L M N O P Q R S T U V W X Y Z

Misc Unsigned Bands - Scissorfight - Bizzards Buzzards And Bastards tab

-------------------------------------------------------------------------------
	         BLIZZARDS, BUZZARDS, AND BASTARDS - Scissorfight
                     Mantrapping For Sport And Profit (2001)
-------------------------------------------------------------------------------
                          www.scissorfight.com
Tabbed By : Reebes
e-mail: Ronofthedead07@rcn.com

Tuning: 5-string Bass
        Dropped A tuning (A-D-G-C-F)

Intro (pickup into main riff)

F|---------------------------------------------------------------------------|
C|---------------------------------------------------------------------------|
G|---------------------------------------------------------------------------|
D|---------------------------------------------------------------------------|
A|-0h2p0-6-----5-----3-----5-------------------------------------------------|

Main Riff (repeat once)

F|---------------------------------------------------------------------------|
C|---------------------------------------------------------------------------|
G|---------------------------------------------------------------------------|
D|---------------------------------------------------------------------------|
A|-3--0--0--0--0--0--X-0--------/6----3--0--0--0--0--0--X-0--------/6--------|

Verse 1

F|-----------------------------------------------------------------------------------------------|
C|-----------------------------------------------------------------------------------------------|
G|-------------------0--1-2--2--1--0--------------------------------0--1-2--2--1--0--------------|
D|----------0--2--3-------------------3--2--0--------------0--2--3-------------------3--2--0-----|
A|-3--0--3-------------------------------------3--3--0--3-------------------------------------3--|


F|-----------------------------------------------------------------------------------------------|
C|-----------------------------------------------------------------------------------------------|
G|-------------------0--1-2--2--1--0--------------------------------0--1-2-----------------------|
D|----------0--2--3-------------------3--2--0--------------0--2--3-------------------------------|
A|-3--0--3-------------------------------------3--3--0--3-----------------------------------/6---|

Chorus 1

F|---------------------------------------------------------------------------|
C|---------------------------------------------------------------------------|
G|---------------------------------------------------------------------------|
D|---------------------------------------------------------------------------|
A|-3--0--0--0--0--0--X-0--------/6----3--0--0--0--0--0--X-0--------/6--------|

F|---------------------------------------------------------------------------|
C|---------------------------------------------------------------------------|
G|---------------------------------------------------------------------------|
D|---------------------------------------------------------------------------|
A|-3--0--0--0--0--0--X-0--------/6----3--0--0--0--0--0--X-0--------/6--------|

Verse 2 - play Verse 1 as written

Chorus 2 - play Chorus 1 as written, continue to Solo Break

Solo Break                   (Guitar solo)

F|--------------------------|------------------------------------------------|
C|--------------------------|------------------------------------------------|
G|-------------------0--1-2-|------------------------------------------------|
D|----------0--2--3---------|------------------------------------------------|
A|-3--0--3------------------|------------------------------------------------|

                             (Bass solo)

F|--------------------------|----4-2---4-2---4-2---2-------------------------|
C|--------------------------|--------4-----4-----4---4-3-2-------------------|
G|-------------------0--1-2-|------------------------------2-----------------|
D|----------0--2--3---------|------------------------------------------------|
A|-3--0--3------------------|------------------------------------------------|

                             (Drum fill)                               
F|--------------------------|------------------|--------------------------|----------------------|
C|--------------------------|------------------|--------------------------|----------------------|
G|-------------------0--1-2-|------------------|-------------------0--1-2-|----------------------|
D|----------0--2--3---------|------------------|----------0--2--3---------|----------------------|
A|-3--0--3------------------|------------------|-3--0--3------------------|---------------0h2p0--|

Interlude 1

F|---------------------------------------------------------------------------|
C|---------------------------------------------------------------------------|
G|---------------------------------------------------------------------------|
D|---------------------------------------------------------------------------|
A|-6------------0h2p0-6------------0-2-0-6------------0h2p0-6---5---3---5----|

Bridge (guitar solo)
(Repeat this phrase three times)                       (4th time)

F|----------------------------------------------------|------------------------------------------|
C|----------------------------------------------------|------------------------------------------|
G|----------------------------------------------------|------------------------------------------|
D|----------------------------------------------------|------------------------------------------|
A|-0---0-0-0-0-0---0-0-0-0-0---0-0-0-0-0---0-0-7------|-0---0-0-0-0-0---0-0-0-0-6---5---3---5----|

(Repeat this phrase three times)                       (4th time)

F|----------------------------------------------------|------------------------------------------|
C|----------------------------------------------------|------------------------------------------|
G|----------------------------------------------------|------------------------------------------|
D|----------------------------------------------------|------------------------------------------|
A|-0---0-0-0-0-0---0-0-0-0-0---0-0-0-0-0---0-0-7------|-0---0-0-0-0-0---0-0-0-0-6---5---3---5----|

Interlude 2

F|-----------------------------------------|
G|-------------------0--1-2----------------|
D|----------0--2--3------------------------|
A|-3--0--3----------------------------/6---|

Chorus 3 - Play Chorus 1 as written

Verse 3 - Play Verse 1 as written

Chorus 4

F|---------------------------------------------------------------------------|
C|---------------------------------------------------------------------------|
G|---------------------------------------------------------------------------|
D|---------------------------------------------------------------------------|
A|-3--0--0--0--0--0--X-0----0h3p0-6----3--0--0--0--0--0--X-0----0h3p0--/6----|


F|---------------------------------------------------------------------------|
C|---------------------------------------------------------------------------|
G|---------------------------------------------------------------------------|
D|---------------------------------------------------------------------------|
A|-3--0--0--0--0--0--X-0----0h3p0-6----3--0--0--0--0--0--X-0--------0h3p0----|

Outro
(Slow down gradually)

F|---------------------------------------------------------------------------|
C|---------------------------------------------------------------------------|
G|---------------------------------------------------------------------------|
D|---------------------------------------------------------------------------|
A|-6-----5-----3-----5-----0-------------------------------------------------|






| /  slide up
| \  slide down
| h  hammer-on
| p  pull-off
| x  Mute note
===============================================================================
Tap to rate this tab
 
# A B C D E F G H I J K L M N O P Q R S T U V W X Y Z