Song name
# A B C D E F G H I J K L M N O P Q R S T U V W X Y Z

Misc Unsigned Bands - Moclov - Flush The Girl tab

Help us improve GuitareTab! Take a short survey!
Yo fellahs, this is Mistah Moose from MoCLoV... Have fun playin' it !

INTRO
e|---------------------------------------------------------------------------|
B|---------------------------------------------------------------------------|
G|---------------------------------------------------------------------------|
D|----5---------5-------5----------------------------------------------------|
A|----5---------5-------5----------------------------------------------------|
E|----3-----3-3-3---3-3-3----(PICK-SCRAPE)-----------------------------------|

VERSE - x4
e|---------------------------------------------------------------------------|
B|---------------------------------------------------------------------------|
G|--------------------------5-5---5/7-7---7\5-(0)----------------------------|
D|----5-5---5-(0)2-2---2-(0)5-5---5/7-7---7\5-(0)----------------------------|
A|----5-5---5-(0)2-2---2-(0)3-3---3/5-5-5-5\3-(0)----------------------------|
E|----3-3---3-(0)0-0---0-(0)-------------------------------------------------|

VERSE - x2 - PALM MUTED
e|---------------------------------------------------------------------------|
B|---------------------------------------------------------------------------|
G|-------------------2-2-2-2-2-2-2-(0)-5-5-5-5-5-5-5/7-7---7\5-(0)-----------|
D|-5-5-5-5-5-5-5-(0)-2-2-2-2-2-2-2-(0)-5-5-5-5-5-5-5/7-7---7\5-(0)-----------|
A|-5-5-5-5-5-5-5-(0)-0-0-0-0-0-0-0-(0)-3-3-3-3-3-3-3/5-5-5-5\3-(0)-----------|
E|-3-3-3-3-3-3-3-(0)---------------------------------------------------------|

PRE-/POST CHORUS
e|---------------------------------------------------------------------------|
B|---------------------------------------------------------------------------|
G|---------------------------------------------------------------------------|
D|-----5--5---5/7-5-4-5-4-0-------2--2---2/5-4-2-4-2-0-----------------------|
A|---------------------------------------------------------------------------|
E|-3-3--3---3-----------------0-0--0---0-------------------------------------|

e|---------------------------------------------------------------------------|
B|---------------------------------------------------------------------------|
G|-----5--5---5/7-5-4-5-4-0-------7--7---7\9-7-5-4-2-0-----------------------|
D|---------------------------------------------------------------------------|
A|-3-3--3---3-----------------5-5--5---5-------------------------------------|
E|---------------------------------------------------------------------------|


CHORUS - x4
e|---------------------------------------------------------------------------|
B|---------------------------------------------------------------------------|
G|-------------5--5--7--7----------------------------------------------------|
D|-5--5--5--5--5--5--7--7----------------------------------------------------|
A|-5--5--5--5--3--3--5--5----------------------------------------------------|
E|-3--3--3--3----------------------------------------------------------------|

PRE-/POST CHORUS
e|---------------------------------------------------------------------------|
B|---------------------------------------------------------------------------|
G|---------------------------------------------------------------------------|
D|-----5--5---5/7-5-4-5-4-0-------2--2---2/5-4-2-4-2-0-----------------------|
A|---------------------------------------------------------------------------|
E|-3-3--3---3-----------------0-0--0---0-------------------------------------|

e|---------------------------------------------------------------------------|
B|---------------------------------------------------------------------------|
G|-----5--5---5/7-5-4-5-4-0-------7--7---7\9-7-5-4-2-0-----------------------|
D|---------------------------------------------------------------------------|
A|-3-3--3---3-----------------5-5--5---5-------------------------------------|
E|---------------------------------------------------------------------------|

VERSE - x2
e|---------------------------------------------------------------------------|
B|---------------------------------------------------------------------------|
G|--------------------------5-5---5/7-7---7\5-(0)----------------------------|
D|----5-5---5-(0)2-2---2-(0)5-5---5/7-7---7\5-(0)----------------------------|
A|----5-5---5-(0)2-2---2-(0)3-3---3/5-5-5-5\3-(0)----------------------------|
E|----3-3---3-(0)0-0---0-(0)-------------------------------------------------|

VERSE - x2 - PALM MUTED
e|---------------------------------------------------------------------------|
B|---------------------------------------------------------------------------|
G|-------------------2-2-2-2-2-2-2-(0)-5-5-5-5-5-5-5/7-7---7\5-(0)-----------|
D|-5-5-5-5-5-5-5-(0)-2-2-2-2-2-2-2-(0)-5-5-5-5-5-5-5/7-7---7\5-(0)-----------|
A|-5-5-5-5-5-5-5-(0)-0-0-0-0-0-0-0-(0)-3-3-3-3-3-3-3/5-5-5-5\3-(0)-----------|
E|-3-3-3-3-3-3-3-(0)---------------------------------------------------------|


PRE-/POST CHORUS
e|---------------------------------------------------------------------------|
B|---------------------------------------------------------------------------|
G|---------------------------------------------------------------------------|
D|-----5--5---5/7-5-4-5-4-0-------2--2---2/5-4-2-4-2-0-----------------------|
A|---------------------------------------------------------------------------|
E|-3-3--3---3-----------------0-0--0---0-------------------------------------|

e|---------------------------------------------------------------------------|
B|---------------------------------------------------------------------------|
G|-----5--5---5/7-5-4-5-4-0-------7--7---7\9-7-5-4-2-0-----------------------|
D|---------------------------------------------------------------------------|
A|-3-3--3---3-----------------5-5--5---5-------------------------------------|
E|---------------------------------------------------------------------------|

CHORUS - x4
e|---------------------------------------------------------------------------|
B|---------------------------------------------------------------------------|
G|-------------5--5--7--7----------------------------------------------------|
D|-5--5--5--5--5--5--7--7----------------------------------------------------|
A|-5--5--5--5--3--3--5--5----------------------------------------------------|
E|-3--3--3--3----------------------------------------------------------------|

BRIDGE - x2
e|---------------------------------------------------------------------------|
B|---------------------------------------------------------------------------|
G|---------------------------------------------------------------------------|
D|-10-10-10-10-10-10-10--9--9--9--9--9--9--9--9--7--xxxx--7--xxxx--7------7--|
A|-10-10-10-10-10-10-10--9--9--9--9--9--9--9--9--7--xxxx--7--xxxx--7------7--|
E|--8--8--8--8--8--8--8--7--7--7--7--7--7--7--7--5--xxxx--5--xxxx--5--xx--5--|

e|---------------------------------------------------------------------------|
B|---------------------------------------------------------------------------|
G|---------------------------------------------------------------------------|
D|--12-12-12-12-12-12-12-xx-10-xx-9-xx-5--5-5-(0)-5-5-5-5-5-5-5-5------------|
A|--12-12-12-12-12-12-12-xx-10-xx-9-xx-5--5-5-(0)-5-5-5-5-5-5-5-5------------|
E|--10-10-10-10-10-10-10-xx--8-xx-7-xx-3--3-3-(0)-3-3-3-3-3-3-3-3------------|

SOLO...
Related for Moclov - Flush The Girl tab