Song name
# A B C D E F G H I J K L M N O P Q R S T U V W X Y Z

Misc Unsigned Bands - Protectyaneck - Your Fault tab

Help us improve GuitareTab! Take a short survey!
***ProtectYaNeck***

~~Your Fault~~   (next time, you can hear the song on: www.myspace.com/protectyaneckrockt)


(you can also play the song in standard tuning, it doesn´t make ab big different!)

Intro (same riff like refrain!)
2x
D--0-0-0-0----3-3-3-3---------------------3p2-------------------------------|
G--2-2-2-2----5-5-5-5----5-5-5-5----3-3-3-----------------------------------|
C--2-2-2-2----5-5-5-5----7-7-7-7----5-5-5-----------------------------------|
F------------------------7-7-7-7----5-5-5-----------------------------------|
A---------------------------------------------------------------------------|
d---------------------------------------------------------------------------|

Verse:
2x (1. verse, the riff is 3 times, 2. and 3. the riff is only 2 times!!!)
D--0-0-0----0-0-0-----0-0-0-----0-0-0-----0-0-0-----0-0-0-----0-0-0---------|
G--2-2-2----2-2-2-----2-2-2-----2-2-2-----2-2-2-----2-2-2-----2-2-2---------|
C--2-2-2----2-2-2-----2-2-2-----2-2-2-----2-2-2-----2-2-2-----2-2-2---------|
F---------------------------------------------------------------------------|
A------------------------------------------------3---------3---------1------|
d---------0--------0---------3---------3------------------------------------|
   m m m    m m m     m m m     m m m     m m m     m m m     m m m


D--0-000-0------------------------------------------------------------------|
G--2-222-2------------------------------------------------------------------|
C--2-222-2------------------------------------------------------------------|
F---------------------------------------------------------------------------|
A-----------1---------------------------------------------------------------|
d---------------------------------------------------------------------------|
   m mmm m

Refrain:
4x
D--0-0-0-0----3-3-3-3---------------------3p2-------------------------------|
G--2-2-2-2----5-5-5-5----5-5-5-5----3-3-3-----------------------------------|
C--2-2-2-2----5-5-5-5----7-7-7-7----5-5-5-----------------------------------|
F------------------------7-7-7-7----5-5-5-----------------------------------|
A---------------------------------------------------------------------------|
d---------------------------------------------------------------------------|

2x
D--0-0-x-x-x-x----3-3-x-x-x-x-------------------------3p2-------------------|
G--2-2-x-x-x-x----5-5-x-x-x-x----5-5-x-x-x-x----3-3-3-----------------------|
C--2-2-x-x-x-x----5-5-x-x-x-x----3-3-x-x-x-x----5-5-5-----------------------|
F--------------------------------3-3-x-x-x-x----5-5-5-----------------------|
A---------------------------------------------------------------------------|
d---------------------------------------------------------------------------|

Break:
10x
D--3-3----------------------------------------------------------------------|
G--5-5--3h5-----------------------------------------------------------------|
C--5-5------3h5-------------------------------------------------------------|
F---------------3h5---------------------------------------------------------|
A---------------------------------------------------------------------------|
d---------------------------------------------------------------------------|


Outro:
4x
D--0--x-x-x-x-x-x-x-x-----3-3--x-x-x-x--------------------------------------|
G--2--x-x-x-x-x-x-x-x-----5-5--x-x-x-x--5---x-x-x-x--3-3-3------------------|
C--2--x-x-x-x-x-x-x-x-----5-5--x-x-x-x--7---x-x-x-x--5-5-5------------------|
F------------------------------x-x-x-x--7---x-x-x-x--5-5-5------------------|
A---------------------------------------------------------------------------|
d---------------------------------------------------------------------------|


Course(Ablauf):

Intro
Verse
Rerain
Verse
Refrain(ausklingen lassen)
Break
Verse
Refrain
Keyboard part
Outro


Legend:

p= pull-off
h= hammering-on
m= mute(abdämpfen)
Related for Protectyaneck - Your Fault tab