Song name
# A B C D E F G H I J K L M N O P Q R S T U V W X Y Z

Misc Unsigned Bands - Double Digit - Johnny Was A Boy tab

Electric guitar
e-5-3-1-3-5-6-5-3-1-3-5-5-5-3-1-3-3-3-5-6-6-5-5-3-1-3-7-5-3-5-7-8-7-5-3-5-|
b-------------------------------------------------------------------------|
g-------------------------------------------------------------------------|
d-------------------------------------------------------------------------|
a-------------------------------------------------------------------------|
E-------------------------------------------------------------------------|

e-7-7-7-5-3-5-5-5-7-8-8-8-7-5-3-5-5-5-------------------------------------|
b-------------------------------------------------------------------------|
g-------------------------------------------------------------------------|
d-------------------------------------------------------------------------|
a-------------------------------------------------------------------------|
E-------------------------------------------------------------------------|
Acoustic guitar
e-------------------------------------------------------------------------|
b-------------------------------------------------------------------------|
g-------------------------------------------------------------------------|
d-7-7-7-7-5-5-5-5-3-3-3-3-5-5-5-5-7-7-7-7-5-5-5-5-3-3-3-3-5-5-5-5-9-9-9-9-|
a-7-7-7-7-5-5-5-5-3-3-3-3-5-5-5-5-7-7-7-7-5-5-5-5-3-3-3-3-5-5-5-5-9-9-9-9-|
E-5-5-5-5-3-3-3-3-1-1-1-1-3-3-3-3-5-5-5-5-3-3-3-3-1-1-1-1-3-3-3-3-7-7-7-7-|

e-------------------------------------------------------------------------|
b-------------------------------------------------------------------------|
g-------------------------------------------------------------------------|
d-7-7-7-7-5-5-5-5-7-7-7-7-7-9-9-9-9-7-7-7-7-5-5-5-5-7-7-7-----------------|
a-7-7-7-7-5-5-5-5-7-7-7-7-7-9-9-9-9-7-7-7-7-5-5-5-5-7-7-7-----------------|
E-5-5-5-5-3-3-3-3-5-5-5-5-5-7-7-7-7-5-5-5-5-3-3-3-3-5-5-5-----------------|
Tap to rate this tab
# A B C D E F G H I J K L M N O P Q R S T U V W X Y Z