Song name
# A B C D E F G H I J K L M N O P Q R S T U V W X Y Z

Misc Unsigned Bands - Elliott - Drive On To Me tab

Highlighted       Show chord diagrams
Elliott:
http://www.myspace.com/elliottmusic
http://en.wikipedia.org/wiki/Elliott_(band)


     C                          Am   
E||--------0--------0-----0--|--------0--------0-----0--|
B||-----1--------1-----1-----|-----1--------1-----1-----|
G||--------------------------|--------------------0-----|
D||--------------------------|--0--------2--------------|
A||--3--------3--------------|--------------------------|
E||--------------------------|--------------------------|

  F                          F            
--------0--------0--------|--0--------0--------0-----|
-----1--------1--------1--|--------1--------1-----1--|
--------------------------|--------------------------|
--3--------3--------3-----|-----3--------3-----------|
--------------------------|--------------------------|
--------------------------|--------------------------|

you're earth bound and i'm injured
we move too fast to remember
the drive on to me

C  Am       F
drive on to me
drive on to me
we carved the days from the hours
you showed me all i could have
in the drive on to me

(chords same as intro)
you were free when i was taken
you did your best to change that
in the drive on to me

G            Am              F        
you stop and i'm in over drive
you hooked the stars with your eyes
in the drive on to me

C  Am       F
drive on to me
drive on to me
we carved the days from the hours
you showed me all i could have
in the drive on to me

C C C F x4

C
accident when we needed
G                        Am
i'm stronger as we near it
we can't help to watch this
G
whole thing crash together
F
we are the bruised and the tender
G
we are the crack that was mended
F
from all the times
F
we ever tried
F
we should've found
           G
each other in this

C  Am       F
drive on to me
drive on to me
we carved the days from the hours
you showed me all i could have
in the drive on to me

C
Tap to rate this tab
 
# A B C D E F G H I J K L M N O P Q R S T U V W X Y Z