Song name
# A B C D E F G H I J K L M N O P Q R S T U V W X Y Z

Misc Unsigned Bands - Abe Abel - Country Girl tab

Help us improve GuitareTab! Take a short survey!
Country Girl

Abe Abel
Tuning: EADGBE	Time Signature: 4/4  Finger style guitar solo
Midi available from crowley@macace.net

 |       |       |       |        |       |       |       |        
|4-------4-------4-------2-------|------2-------0-----------------|
|5-------4-------2-------2-------|------0-------0-----------------|
|4-------4-------2-------2-------|------2-------1-----------------|
|----------------2-------2-------|------1-------2-----------------|
|----------------0---------------|2-------------2-----------------|
|0-------------------------------|--------------------------------|

 |       |       |       |        |       |       |       |        
|--9-----7-------0-------7-------|5-----3-------2-----------------|
|--7-------------5-------5-------|5-----0-------0-----------------|
|--7-------------6-------5-------|5-----3-------2-----------------|
|--7-------------6-------5-------|------2-------1-----------------|
|----------------0---------------|------3-------2-----------------|
|--------------------------------|--------------------------------|

 |       |       |       |        |       |       |       |        
|4-------5-------7-------10------|9-----7-------5-----------------|
|5-------5-------7-------9-------|9-----7-------5-----------------|
|4-------4-------7-------9-------|9-----7-------5-----------------|
|----------------7-------9-------|9-----7-------4-----------------|
|--------------------------------|--------------0-----------------|
|--------------------------------|--------------------------------|

 |       |       |       |        |       |       |       |        
|------4-----------3-------------|2-------2-------0---------------|
|------0-----------0-------------|0-------0-------0---------------|
|------4-----------3-------------|2-------2-------1---------------|
|--------------------------------|--------1-------2---------------|
|--------------------------------|--------2-------2---------------|
|0-------------0-----------0-----|--------------------------------|

 |       |       |       |        |       |       |       |        
|2-------2-------4-------4-------|0-----0-------0-----------------|
|2-------2-------4-------4-------|0-----0-------0-----------------|
|2-------2-------4-------4-------|1-----1-------1-----------------|
|2-------2-------4-------4-------|--------------------------------|
|--------------------------------|--------------------------------|
|--------------------------------|0-----0-------0---------7/------|

 |       |       |       |        |       |       |       |        
|4---------4-----5-------5-------|9-----9-------7-----------------|
|5---------------5-------5-------|7-----7-------7-----------------|
|4---------------4-------4-------|7-----7-------7-----------------|
|--------------------------------|7-----7-------7-----------------|
|--------------------------------|--------------------------------|
|0-------------------------------|--------------------------------|

 |       |       |       |        |       |       |       |        
|--------11------9---------------|--------7-------5---------------|
|--------9-------9---------------|--------5-------5---------------|
|--------9-------9---------------|--------5-------5---------------|
|--------9-------9---------------|--------5-------5---------------|
|--------------------------------|0-------------------------------|
|0-----------------------0-------|--------------------------------|

 |       |       |       |        |       |       |       |        
|----4-------2---4-------2-------|--------2-------0---------------|
|----2-------------------2-------|--------0-------0---------------|
|----2-------------------2-------|--------2-------1---------------|
|----2-------------------2-------|--------1-------2---------------|
|2-----------------------2-------|2---------------2---------------|
|--------------------------------|--------------------------------|

 |       |       |       |        |       |       |       |        
|4---5---7-------7-------5-------|------------0---0---------------|
|5---------------5-------5-------|--------4-------0---------------|
|4---------------6-------6-------|----4-----------1---------------|
|----------------7-------7-------|4---------------2---------------|
|--------------------------------|--------------------------------|
|--------------------------------|--------------------------------|

 |       |       |       |        |       |       |       |        
|--9-----7-------0-------7-------|5-----3-------2-----------------|
|--7-------------5-------5-------|5-----0-------0-----------------|
|--7-------------6-------5-------|5-----3-------2-----------------|
|--7-------------6-------5-------|------2-------1-----------------|
|----------------0---------------|------3-------2-----------------|
|--------------------------------|--------------------------------|

 |       |       |       |        |       |       |       |        
|4-------5-------7-------10------|9-----7-------5-----------------|
|5-------5-------7-------9-------|9-----7-------5-----------------|
|4-------4-------7-------9-------|9-----7-------5-----------------|
|----------------7-------9-------|9-----7-------4-----------------|
|--------------------------------|--------------------------------|
|--------------------------------|--------------------------------|

 |       |       |       |        |       |       |       |        
|------4-----------3-------------|2-------2-------0---------------|
|------0-----------0-------------|0-------0-------0---------------|
|------4-----------3-------------|2-------2-------1---------------|
|--------------------------------|--------1-------2---------------|
|--------------------------------|--------2-------2---------------|
|0-------------0-----------0-----|--------------------------------|

 |       |       |       |        |       |       |       |        
|--------------------2-----------|--------------------0-----------|
|--------2---------------2-------|--------0---------------0-------|
|----4-------4---------------2---|----2-------2---------------0---|
|----------------4---------------|--------------------------------|
|4-------------------------------|2-------------------------------|
|--------------------------------|----------------0---------------|

 |       |       |       |        |       |       |       |        
|----------------0---------------|----0---------------------------|
|--------0---------------0-------|--------0-----------------------|
|----2-------2-------2-------2---|------------2-------------------|
|--------------------------------|--------------------------------|
|3-------------------------------|2-------------------------------|
|--------------------------------|--------------------------------|

 |       |       |       |        |       |       |       |        
|--------------------------------|0-------------------------------|
|------------------------0-------|--------------------------------|
|----------------2---------------|--------------------------------|
|--------2-----------------------|--------------------------------|
|2-------------------------------|--------------------------------|
|--------------------------------|--------------------------------|

 |       |       |       |        
|0-------------------------------|
|0-------------------------------|
|1-------------------------------|
|2-------------------------------|
|2-------------------------------|
|0b------------------------------|


Created with TablEdit for Mac - http://www.tabledit.com/
Related for Abe Abel - Country Girl tab