Song name
# A B C D E F G H I J K L M N O P Q R S T U V W X Y Z

Misc Unsigned Bands - Mindslip - Change The World tab

----------------------------------------------------------------------------
		                         Change the World - Minslip
----------------------------------------------------------------------------
Tabbed by:Mark Stoesser
Email:super_sayn@msn.com

Tuning:Regular 'EGADGBE'

e|-----------------------------------3--------------------------------------|
B|-----------------------------------------0-----------------1--------------|
G|----------0---------------------0-----0-----0-----------2-----------------|
D|-------2---------------------2-----------------0-----2--------------------|
A|----2---------------------2-----------------------0-----------0--1--2--3--|
E|-0------------0--1--2--3--------------------------------------------------|

e|--------------------------------------------------------------------------|
B|-------1--------------0---------------------------------------------------|
G|----2-----2--------2------------------(X2)--------------------------------|
D|-2--------------1---------------------------------------------------------|
A|-------------2------------------------------------------------------------|
E|--------------------------------------------------------------------------|

| /  slide up
| \  slide down
| h  hammer-on
| p  pull-off
| ~  vibrato
| +  harmonic
| x  Mute note
===============================================================================
Tap to rate this tab
 
# A B C D E F G H I J K L M N O P Q R S T U V W X Y Z