Song name
# A B C D E F G H I J K L M N O P Q R S T U V W X Y Z

Misc Unsigned Bands - The Dangerous Summer - The Permanent Rain tab

Help us improve GuitareTab! Take a short survey!
Hey Its Scottie
Okay the dude who did this song before was completely wrong here it is...
Artist: The Dangerous Summer
Song: The Permanent Rain
Tuning: Drop D (DADGBE)
Intro
This part is repeated out through the whole song 
|-------------------------------------------------------------||
|-------------------------------------------------------------||
|-------------------------------------------------------------||
|---------------12-12--12--12-------------------12-12--12-12--|| 
|-------------------------------------------------------------||
|-16-16--16-16--------------------16-16--16-16----------------||
Pm...........................
                                     


|---------------------------------||
|---------------------------------||
|-15---15-15-15---15-15-15---15---||Repeat
|--x----x--x--x----x--x--x----x---|| 
|-13---13-13-13---13-13-13---13---||
|---------------------------------||

When last time finish with

|------------------||
|------------------||
|-21/-22-22-22-22--||
|--x/--x--x--x--x--||
|-19/-10-20-20-20--||
|------------------||

|------------------------------------------||
|------------------------------------------||
|-19---15---17---14---15--21/-22-22-22-22--||
|--x----x----x----x----x---x/--x--x--x--x--||
|-17---13---15---12---13--19/-20-20-20-20--||
|------------------------------------------||

Verse
|----------------------------------------------------------||
|----------------------------------------------------------||
|-15---15-15-15---15-15-15---15-15---15-15-15---15-15-15---||
|--x----x--x--x----x--x--x----x--x----x--x--x----x--x--x---||
|-13---13-13-13---13-13-13---13-13---13-13-13---13-13-13---||
|----------------------------------------------------------||

Chorus
|---------------------------------||
|---------------------------------||
|---------------------------------||
|--------1-------5-------3--------|| 
|--------1-------5-------3--------||
|--------1-------5-------3--------||

Verse
Chorus

Bridge
|------------------------||
|------------------------||
|------------------------||
|-----1---------8--------||
|-----1---------8--------||
|-----1---------8--------||

Chorus

Ending
|--------------||
|--------------||
|-----(3)------||
|------1-------||
|------1-------||
|------1-------||
Related for The Dangerous Summer - The Permanent Rain tab