Guitaretab - guitar tabs
Song name
# A B C D E F G H I J K L M N O P Q R S T U V W X Y Z

Misc Unsigned Bands - Two Tongues - Crawl tab

Ok im pumped for more songs from this band so wanted to give this tab to everyone

there is a capo on the 2nd fret 

main clean part played through most of the song
e:-----------------------------------------------------------------------|
B:-----------------------------------------------------------------------|
G:-7-------7/6------6/2-----2/4-----4 slide back to 7 repeat many times--|
D:---0---------0--------0-------0----------------------------------------|
A:-----------------------------------------------------------------------|
E:-----7---------5--------2-------3--------------------------------------|

[ Tab from: http://www.guitaretab.com/m/misc-unsigned-bands/109135.html ]
electric part verse
e:----------------------------|
B:----------------------------|
G:--7----6----2----4----------|
D:--0----0----0----0----------|
A:----------------------------|
E:--7----5----2----3----------|



chorus chords
e:----------------------------|
B:----------------------------|
G:--4----7----2---------------|
D:--4----7----2---------------|
A:--2----5----0---------------|
E:--2----5--------------------|

bridge
e:-----------------------------------------------|
B:-----------------------------------------------| repeat except one time 
G:-----------------------------------------------| the last chord goes into 
D:--5------7-----8----9--------------------------| (4) this chord before 
A:--5------7-----9----9--------------------------| (5) back to the starting 
E:--3------5-----6----7--------------------------| (2) chord


thats what i got i know there are more parts but this is what i got so have fun with it
Related for Two Tongues - Crawl tab