Song name
# A B C D E F G H I J K L M N O P Q R S T U V W X Y Z

Misc Unsigned Bands - Black Ribbon Sky - Void Black tab

Help us improve GuitareTab! Take a short survey!
this is 100% correct
writin with the help of B.R.S. guitarist
Paul Lichtenauer


pm = palm mute

INTRO


-13--13--13--12--12--12--12------------|
---15--15--15--15--15--15--------------|
---------------------------------------|
---------------------------    played--| 4X
---------------------------------------|
---------------------------------------|


VERSES

pm--]
--------13--13--12--12--12--12---------------|
----------15--15--15--15--15-----------------|
---------------------------------------------|
-000-----------------------------------------|     Played 3X
-000-----------------------------------------|
-000-----------------------------------------|


JUST BEFORE CHORUS

-------|
-------|
-------|
-3-2-1-|
-3-2-1-|
-3-2-1-|


CHORUS

   pm-             pm------]    pm-------------------------------|
-----------------------------------------------------------------|
-----------------------------------------------7-9-9-------------|
-----------------------------------------------x-x-x-------------|
-----------------------------------------------5-7-7     played--| 4X
-0-0-0--6-6-5-555--33335533---0-0-0--6-6-5-555-------------------|
-0-0-0--6-6-5-555--33335533---0-0-0--6-6-5-555-------------------|


BRIDGE

----------------------------------|
----------------------------------|
----------------------------------|
----------------------------------|      PLAYED 2X
0~-----3~--3330----ph3----5-4-----|
0------3---3330-----------5-4-----|


2nd PART

--------------------------------------|
--------------------------------------|
--------------------------------------|
-------------------------     PLAYED--| 4X
-3-2-1--3-2-1--3-2-1--321-------------|
-3-2-1--3-2-1--3-2-1--321-------------|


3rd PART

trem.
---------------------------|
---------------------------|
---------------------------|    (same as bridge 2 but with trem.)
---------------------------|     PLAYED 2X
-3-2-1--3-2-1--3-2-1--321--|
-3-2-1--3-2-1--3-2-1--321--|


IT GOES
-INTRO
-VERSE
-PRE CHORUS
-CHORUS
-VERSE
-PRE CHORUS
-CHORUS
-VERSE
-PRE CHORUS
-CHORUS
-BRIDGE
-2nd BRIDGE
-VERSE
-PRE CHORUS
-CHORUS
-2nd BRIDGE (only twice this time)
-3rd BRIDGE
to end
Related for Black Ribbon Sky - Void Black tab