Guitaretab - guitar tabs
Song name
# A B C D E F G H I J K L M N O P Q R S T U V W X Y Z

Misc Unsigned Bands - White Jet - Unknown At The Moment tab

  Dropped D Tuning.
 (Without distortion)
  Guitar 1

Keys:
. - Palm muting
|-------------------------------------------------|
|-------------------------------------------------|
|-------------------------------------------------|
|-10-1010-1010--5-55-55--8-88-88-3-33--0----------|
|-10-1010-1010--5-55-55--8-88-88-3-33--0----------|
|-10-1010-1010--5-55-55--8-88-88-3-33--0----------|

|-------------------------------------------------|
|-------------------------------------------------|
|-------------------------------------------------|
|-10-1010-1010--5-55-55--8-88-88--101010-121212---|
|-10-1010-1010--5-55-55--8-88-88--101010-121212---|
|-10-1010-1010--5-55-55--8-88-88--101010-121212---|

  (With heavy distortion)
Guitar 1 and Guitar 2
|-------------------------------------------------|
|-------------------------------------------------|
|-------------------------------------------------|
|-10-1010-1010--5-55-55--8-88-88-3-33--0----------|
|-10-1010-1010--5-55-55--8-88-88-3-33--0----------|
|-10-1010-1010--5-55-55--8-88-88-3-33--0----------|
[ Tab from: http://www.guitaretab.com/m/misc-unsigned-bands/109181.html ]
|-------------------------------------------------|
|-------------------------------------------------|
|-------------------------------------------------|
|-10-1010-1010--5-55-55--8-88-88--101010-121212---|
|-10-1010-1010--5-55-55--8-88-88--101010-121212---|
|-10-1010-1010--5-55-55--8-88-88--101010-121212---|

|-------------------------------------------------|
|-------------------------------------------------|
|-------------------------------------------------|
|-8-88-88--3-33-33--5-55-55--1-11-11--------------| x2
|-8-88-88--3-33-33--5-55-55--1-11-11--------------|
|-8-88-88--3-33-33--5-55-55--1-11-11--------------| 


Guitar 1
|-------------------------------------------------|
|-------------------------------------------------|
|-------------------------------------------------|
|-333----555-555-111-111-333----------------------| x4
|-333-x4-555-555-111-111-333-x4-------------------|
|-333----555-555-111-111-333----------------------|
  ..  ..  ..  ..  ..  ..  ..  

Guitar 2
|-------------------------------------------------|
|-------------------------------------------------|
|-------------------------------------------------|
|-9-9-9-9-10-10-10-10-9-9-12-12-12-12-12-12-------|
|-------------------------------------------------|
|-------------------------------------------------|

|-------------------------------------------------|
|-------------------------------------------------|
|-------------------------------------------------|
|-------------------------------------------------|
|-------------------------------------------------|
|-------------------------------------------------|
Related for White Jet - Unknown At The Moment tab
Advertisement will be closed in 10 seconds