Song name
# A B C D E F G H I J K L M N O P Q R S T U V W X Y Z

Misc Unsigned Bands - Burnout - Dream About Her tab

This songs about a girl from Pennsylvania, and one of my best friends.

Dream About Her
By: Zach Brown


Intro
e>-----------------------------------------<   >--------------------<
B>-----------------------------------------<   >--------------------<
G>-4-4-444-------------4-4-444-------------<   >---4444444444444444-<
D>-4-4-444---4-4-444---4-4-444---6-6-666---<   >---4444444444444444-<
A>-2-2-222---4-4-444---2-2-222---4-4-444---<   >---2222222222222222-<
E>-----------2-2-222-------------4-4-444-x2<   >--------------------<


Verse 1  (Part 1)
e>------------------------------------------------<
B>------------------------------------------------<
G>---4-4-444-------------4-4-444------------------<
D>---4-4-444---4-4-444---4-4-444---6-6-666--------<
A>---2-2-222---4-4-444---2-2-222---4-4-444--------<
E>-------------2-2-222-------------4-4-444-----x1<


Verse 1 (Part 2)
e>-----------------------------------------------------------<
B>-----------------------------------------------------------<
G>---------------4-4-4-4-4-4---5555-4-5555-4-5555-4-5555-4---<
D>---6-6-XXX-4---4-4-4-4-4-4---5555-4-5555-2-5555-4-5555-4---<
A>---6-6-XXX-4---2-2-2-2-2-2---3333-2-3333-2-3333-2-3333-2---<
E>---4-4-XXX-2-----------------------------------------------<


Bridge
e>-------------------------------------------------<
B>-------------------------------------------------<
G>---4-4-444-------------4-4-444-------------------<
D>---4-4-444---4-4-444---4-4-444---6-6-666---------<
A>---2-2-222---4-4-444---2-2-222---4-4-444---------<
E>-------------2-2-222-------------4-4-444-----x2--<


Verse 2  (Part 1)
e>-------------------------------------------------<
B>-------------------------------------------------<
G>---4-4-444-------------4-4-444-------------------<
D>---4-4-444---4-4-444---4-4-444---6-6-666---------<
A>---2-2-222---4-4-444---2-2-222---4-4-444---------<
E>-------------2-2-222-------------4-4-444-----x4--<
Pm   * * **    * * **    * * **    * * **


Verse 2 (Part 2)
e>-----------------------------------------------<
B>-----------------------------------------------<
G>---4-4-4-4-4-4---5555-4-5555-4-5555-4-5555-4---<
D>---4-4-4-4-4-4---5555-4-5555-2-5555-4-5555-4---<
A>---2-2-2-2-2-2---3333-2-3333-2-3333-2-3333-2---<
E>-----------------------------------------------<
Pm   *  *  *  *


Bridge  (Part 1)
e>-------------------------------------------------<
B>-------------------------------------------------<
G>---4-4-444-------------4-4-444-------------------<
D>---4-4-444---4-4-444---4-4-444---6-6-666---------<
A>---2-2-222---4-4-444---2-2-222---4-4-444---------<
E>-------------2-2-222-------------4-4-444-----x2--<                   (wait a little 
then go on to part two)


Bridge (Part 2)
e>------------------------------------------------------------------------<
B>-5~/-777---5~/-777---5~/-777---999-101010-999-10-9-10-9-101010-999-10---<
G>-5~/-777---5~/-777---5~/-777---777-7--7-7-777--7-7--7-7--7-7-7-777--7---<
D>------------------------------------------------------------------------<
A>------------------------------------------------------------------------<
E>------------------------------------------------------------------------<


Verse 2  (Part 1)
The first3 lines are with no guitar
e>-------------------------------------------------------<
B>-------------------------------------------------------<
G>---------4-4-444-------------4-4-444-------------------<
D>---------4-4-444---4-4-444---4-4-444---6-6-666---------<
A>---------2-2-222---4-4-444---2-2-222---4-4-444---------<
E>-12\---------------2-2-222-------------4-4-444-----x4--<


Verse 2 (Part 2)
e>-----------------------------------------------<
B>-----------------------------------------------<
G>---4-4-4-4-4-4---5555-4-5555-4-5555-4-5555-4---<
D>---4-4-4-4-4-4---5555-4-5555-2-5555-4-5555-4---<
A>---2-2-2-2-2-2---3333-2-3333-2-3333-2-3333-2---<
E>-----------------------------------------------<


Bridge
e>-------------------------------------------------<
B>-------------------------------------------------<
G>---4-4-444-------------4-4-444-------------------<
D>---4-4-444---4-4-444---4-4-444---6-6-666---------<
A>---2-2-222---4-4-444---2-2-222---4-4-444---------<
E>-------------2-2-222-------------4-4-444-----x2--<

Verse 3
e>---------------------------------------<
B>------------------------777-7777-------<
G>---4~---6~---4~---7~~---777-7777-7~~~--<
D>---4~---6~---4~---7~~---555-5555-7~~~--<
A>---2~---4~---2~---5~~------------5~~~--<
E>---------------------------------------<


Lyrics:
Here we go again
I was 15 confused and wearing thin
As I sit alone at home on sweethearts night
And Dream about her
Cause shes 244 miles away

All the times Ive felt this way
But there was nothing I could say
As I go through life day by day
This felling dosent go away
She thought she was gonna move here
So she could be with me
But Shes still 244 miles away
Miles away

You live alone with your two brothers and sister
Ill never ask so youll never have to answer
I wont risk the friendship that is good all around
I hope this will be a lesson
To not fall for a girl who lives 244 miles away
But I still Dream about her

I would love to be with you
But I cant risk asking you
So I guess well never know
Tap to rate this tab
# A B C D E F G H I J K L M N O P Q R S T U V W X Y Z