Guitaretab - guitar tabs
Song name
# A B C D E F G H I J K L M N O P Q R S T U V W X Y Z

Misc Unsigned Bands - Burnout - Sassafras tab

This songs a big F*** you to Tom Kubic

ďSassafrasĒ
By: Zach Brown

(The whole song is played fast)
Intro
e>--------------------------------------------------<
B>--------------------------------------------------<
G>--------------------------------------------------<
D>-666---444---666---222----666---444---666---777---<
A>-666---444---666---222----666---444---666---777---<
E>-444---222---444----------444---222---444---555---<     x2

Verse 1
e>-----------------------<
B>-----------------------<
G>-----------------------<
D>---7-7-7-7---5-5-555---<
A>---7-7-7-7---5-5-555---<
E>---5-5-5-5---3-3-333---<      x 5


Chorus
e> ----------------------------------------------------<
B>-----------------------------------------------------<
G>---4444----------66666666----------4444--------------<
D>---4444---4444---66666666---4444---4444---66666666---<
A>---2222---4444---44444444---4444---2222---66666666---<
E>----------2222--------------2222----------44444444---<

Bridge
e>--------------------------------------------------<
B>--------------------------------------------------<
G>--------------------------------------------------<
D>-666---444---666---222----666---444---666---777---<
A>-666---444---666---222----666---444---666---777---<
E>-444---222---444----------444---222---444---555---<     x2

Verse 2
e>-----------------------<
B>-----------------------<
G>-----------------------<
D>---7-7-7-7---5-5-555---<
A>---7-7-7-7---5-5-555---<
E>---5-5-5-5---3-3-333---<      x 5

[ Tab from: http://www.guitaretab.com/m/misc-unsigned-bands/109186.html ]
Chorus
e> ----------------------------------------------------<
B>-----------------------------------------------------<
G>---4444-----------66666666---------4444--------------<
D>---4444---4444---66666666---4444---4444---66666666---<
A>---2222---4444---44444444---4444---2222---66666666---<
E>----------2222--------------2222----------44444444---<


Bridge
e>--------------------------------------------------<
B>--------------------------------------------------<
G>--------------------------------------------------<
D>-666---444---666---222----666---444---666---777---<
A>-666---444---666---222----666---444---666---777---<
E>-444---222---444----------444---222---444---555---<     x4


Chorus
e> ----------------------------------------------------<
B>-----------------------------------------------------<
G>---4444----------66666666----------4444--------------<
D>---4444---4444---66666666---4444---4444---66666666---<
A>---2222---4444---44444444---4444---2222---66666666---<
E>----------2222--------------2222----------44444444---<      x2


Outro
e>--------------------------------------------------<
B>--------------------------------------------------<
G>--------------------------------------------------<
D>-666---444---666---222----666---444---666---777---<
A>-666---444---666---222----666---444---666---777---<
E>-444---222---444----------444---222---444---555---<     x3

Lyrics:
Iím thinking about you
And Iím starting to hate you
Because you pissed me off
You told everyone about a secret that I had
And you didnít expect me to get mad

Well maybe you never liked me
And wanted to get me some how
To you this probably doesnít make much sense
But I think your just dumb

You still expected me to be your friend
But this is the end
I told my cousins 
And now they want to hurt you
So you better never show your face 

Well maybe you never liked me
And wanted to get me some how
To you this probably doesnít make much sense
But I think your just dumb

Well maybe you never liked me
And wanted to get me some how
To you this probably doesnít make much sense
But I think your just dumb

Your just dumb
Related for Burnout - Sassafras tab