Song name
# A B C D E F G H I J K L M N O P Q R S T U V W X Y Z

Misc Unsigned Bands - Among The Betrayed - Eraser tab

-------------------------------------------------------------------------------
			     Eraser - Among the betrayed
-------------------------------------------------------------------------------
Tabbed by: lordofwar147
Email: jefry147@yahoo.com

Tuning:Drop C

e|--------------------------------------------------------------------------|
B|--------------------------------------------------------------------------|
G|---------3-2------------------3-2-----------------------------------------|
D|---------1-0------------------1-0-----------------------------------------|
A|-0-3-2-3--------------0-3-2-3---------------------------------------------|
E|-0-3-2-3-----3-5-3-2--0-3-2-3-----3-5-3-2---------------------------------|
               . . . .              . . . .
e|--------------------------------------------------------------------------|
B|--------------------------------------------------------------------------|
G|--------------------------------------------------------------------------|
D|--------------------------------------------------------------------------|
A|-----------------111-000--------------------------------------------------|
E|-000-333-222-333---------3-5-3-2-------(Play the triplet Riff 4X)---------|
   ... ... ... ... ... ... . . . .
e|--------------------------------------------------------------------------|
B|--------------------------------------------------------------------------|
G|------(Play this Riff 2X)-------------------------------------------------|
D|--------------------------------------------------------------------------|
A|-------------------------------3p2h3---------------------------------5----|
E|-12\-000-000-0-000-0-000-000-0-3p2h3-000-000-0-000-0-000-000-0-3p2h3---6--|
       ... ... . ... . ... ... .       ... ... . ... . ... ... .
e|--------------------------------------------------------------------------|
B|--------------------------------------------------------------------------|
G|------(Play this Riff 2X)-------------------------------------------------|
D|--------------------------------------------------------------------------|
A|---------------------------3p2h3---------------------------------5--------|
E|-000-000-000-000-000-000-0-3p2h3-000-000-000-000-000-000-0-3p2h3---6------|
   ... ... ... ... ... ... .       ... ... ... ... ... ... .
e|--------------------------------------------------------------------------|
B|--------------------------------------------------------------------------|
G|--------------------------------------------------------------------------|
D|--------------------------------------------------------------------------|
A|-0h2-2-2-2-2-2-2-2h3-3-3h5-2-2h3------------------------------------------|
E|-0h2-2-2-2-2-2-2-2h3-3-3h5-2-2h3-(Play this riff 4X)----------------------|
       . . . . . .     .     .


| /  slide up
| \  slide down
| h  hammer-on
| p  pull-off
| ~  vibrato
| +  harmonic
| .  Mute note
===============================================================================
Tap to rate this tab
# A B C D E F G H I J K L M N O P Q R S T U V W X Y Z