Song name
# A B C D E F G H I J K L M N O P Q R S T U V W X Y Z

Misc Unsigned Bands - Wolfang - Toby tab

Help us improve GuitareTab! Take a short survey!
This Is My Song I Made For My Band Wolfang Dedicated To My Brother. Played On Acoustic.


Intro-----------------------------------------------------------------------

  ---------8times-------8times--------8times--------8times-------|
  -----3------------3-------------3-------------3----------------|
  ------2------------0-------------4-------------0---------------|
  ---------------------------------------------------------------|
  ---------------------------------------------------------------|
  ---------------------------------------------------------------|

Verse-----------------------------------------------------------------------

  ---------8times-------8times---dothistwice---------------------|
  ----3-------------3--------------------------------------------|
  -----2-------------0-------------------------------------------|
  ---------------------------------------------------------------|
  ---------------------------------------------------------------|
  ---------------------------------------------------------------|

V1  If You Need Me I'm Hear. If I'm Not Around Don't Fear.
V2  If I'm Not Around Don't Fear. Always In Your Heart I'm Near.

Courus-----------------------------------------------------------------------|
  ---------4times---------4times----------8times-----dothistwice-------------|
  -----3-------------3---------------3---------------------------------------|
  ------4-------------2---------------0--------------------------------------|
  ---------------------------------------------------------------------------|
  ---------------------------------------------------------------------------|
  ---------------------------------------------------------------------------|

  Toby, How Are You. Toby, I Love You.

Bridge----------------------------------------------------------------------

  -------4time-------4times-------8times-----dothistwice-----1---|
  ---3-----------3------------3-----------------------------3----|
  ----4-----------2------------0----------------------------2----|
  ---------------------------------------------------------------|
  ---------------------------------------------------------------|
  ---------------------------------------------------------------|

  We Might Fight But It's Okay, We Make Up The Very Same Day.
Related for Wolfang - Toby tab