Song name
# A B C D E F G H I J K L M N O P Q R S T U V W X Y Z

Misc Unsigned Bands - Mindsink - Alogorithm tab

Help us improve GuitareTab! Take a short survey!
Alogorithm by MindSync

Tablature by Aaron Honsberger

* Not 100% complete , but I figured I get some up well I work
  on the remainder*

Tuning: Double Drop D (dadgbd)

Electric Guitar Part 1 (0:39 sec)
----------------------------------------|
-------------4-4-8-107-4-10-------------|
-------------4-4-7-9-6-4-9--------------| X4
---------2-2-4-4-5-7-4-4-7--------------|
---------2-2-2-2-5-7-4-2-7--------------|
---------2-2-----5-7-4---7-7-7h9-5h7-4--|


Lead Guitar (0:54 sec)

-------------------------------------------------------|
-------------------------------------------------------|
-------------------------------------------------------|
----2-4-5-5s7s545(4hp5(4x)-7-9-7-5-7-5hp7s4-7-9-5-7-4--| X1
-------2-----------------------------------------------|
-------------------------------------------------------|

** 2nd part of solo same, except play a E chord at the end of 2nd part **

------------------------------------------------------------|
--------------------------------------------------------5---|
--------------------------------------------------------4---|
----2-4-5-5s7s545(4hp5(4x)-7-9-7-5-7-5hp7s4-7-9-5-7-4-5-2---|  X1
-------2----------------------------------------------------|
------------------------------------------------------------|


Electric Guitar Part 3 (1:11 min/sec)

--------------------------------|
---8---7-8-5-7---8-107-8-5------|
---7-9-6-7-4-6---7-9-6-7-4------|   X5
---5-7-4-5-2-4---5-7-4-5-2------|
---5-7-4-5-2-4---5-7-4-5-2------|
---5-7-4-5-2-4---5-7-4-5-2------|


Electric Guitar Part 4 (1:22/ min/sec)

* Guitar Effects - Harmonize Pedal - *
------------------------------------------|
------------------------------------------|
--------------------------5p2-5p2-4p2-----| X2
----5-7-4-5-2-4-5-7-4-5---5p2-5p2-4p2-5---|
----5-7-4-5-2-4-5-7-4-5---------------5---|
------------------------------------------|

Repeat Electric Guitar Part 3  X2  (1:28 min/sec)


Electric Guitar Part 5 (1:33 min/sec)

* Guitar Effects - Harmonize Pedal - *

-------------------------------|
-------------------------------|
----5h7-4h5-2h4---5h7-4h5-2----| X2
----5h7-4h5-2h4---5h7-4h5-2----|
-------------------------------|
-------------------------------|


Electric Guitar Part 6 (1:37 min/sec)

----------------------------------------------------|
----55-55----------------55-55----------------------|
----44-44----------------44-44----------------------|
----22-22-------0--------22-22--------0--------8s/--|    X4
----22-22--0hp1---1p0----22-22----0hp1--p1p0-0-8s/--|
----22-22----------------22-22-----------------8s/--|


Electric Guitar Part 7 (1:47 min/sec) (Lead Over Part 6)

 ** ??? Not Finished ??? **


Electric Guitar Part 8 (2:00 min/sec)

-----------------------------------------|
-----------------------------------------|
-----------------------------------------| X1
--2--5-8-5-2---5-8-5-2---5-8-5-2-4-5-----|
--2--5-8-5-2---5-8-5-2---5-8-5-2-4-5-----|
--2--5-8-5-2---5-8-5-2---5-8-5-2-4-5-----|

** Followed With ** (2:04 min/sec)

--------------------------------------------|
--------------------------------------------|
--------------------------------------------| X1
--2--5-8-5-2---5-8-5-2---5-8-5-2-4-5h7-9----|
--2--5-8-5-2---5-8-5-2---5-8-5-2-4-5h7-9----|
--2--5-8-5-2---5-8-5-2---5-8-5-2-4-5h7-9----|


 *** Not Finished Tabbing From (2:09 to 2:20) ***

 *** No Tablature Until (2:39 min/sec) ***


 Repeat Electric Guitar Part 6 (4X) (2:39 min/sec)

 * Missing Tablature For Lead Guitar Over Top Of Part 6 (2:50 to 3:03) *


Organ Intro (3:04 min/sec)


Acoustic Guitar Solo (3:11 min/sec)

-------------------------------------------------------|
-------------------------------------------------------|
-------------------------------------------------------|
---2-4-5-5h7h5-4h54h54h54h54-7-9-7-5-7-5s4-4-7-9-5-7-4-|  X2
-------------------------------------------------------|
-------------------------------------------------------|

*** Not Finshined Tablature From (3:26) to (3:54) ***


Semi-Acousctic Guitar solo (3:56 min/sec)

-------------------------------------------------------|
-------------------------------------------------------|
-------------------------------------------------------|
---2-4-5-5h7h5-4h54h54h54h54-7-9-7-5-7-5s4-4-7-9-5-7-4-|  X1
-------------------------------------------------------|
-------------------------------------------------------|

-----------------------------------------------------------------|
-----------------------------------------------------------------|
-----------------------------------------------------------------|
---2-4-5-5h7h5-4h54h54h54h54--7-9-7-5-7-5s4-4-7-9-5-7-4-7-9-5-7--|  X1
-----------------------------------------------------------------|
-----------------------------------------------------------------|


Semi Acoustic (Outro) (4:11 min/sec)

--------------------------------------------------|
--------------------------------------------------|
-----0----------------0---------------------------| X1
---2---4-2--0-0-0---2---4-2-5-7-0-0-0-------------|
-2--2-------5-2-5--2-2----------5-2-5-------------|
--------------------------------------------------|

** Missing Tablature From (4:18) To (4:30) **

** From (4:31) to (4:39) Repeat Part 8 ** (X1)

** Missing Tablature from (4:40) To (4:50) **

** From (4:51) To (4:57) Repeat Part 3 ** (X2)

** From  (4:58) To (5:04) Repeat Part 4 ** (X2)

** Missing Tablature From (4:59) To (5:14) **

 End Of Song


** Just started working on this yesterday,
I will get the remainder posted when completed.
Pretty tough song , anyone who can mimic this
from head to toe is good in my books **

Legend
     p = pull off
     s = slide
     h = hammer
     / = slide to top of kneck


*** Bands Website ***

**  http://www.angelfire.com/band2/jmbakula/ ***
Related for Mindsink - Alogorithm tab