Song name
# A B C D E F G H I J K L M N O P Q R S T U V W X Y Z

Misc Unsigned Bands - Bob Davidse - Vrolijke Vrienden tab

Bob Davidse - Vrolijke vrienden:


For those who want the lyrics, visit:
http://www.musicfrom.nl/songteksten/davidse,_bob/vrolijke_vrienden.html


E-------------2-------3-3-3-2-----------------|
B-3---3-5---5---5-3-----------3-3-2-3-5-------|
G---2-----2-----------------------------------|
D---------------------------------------------|
A---------------------------------------------|
E---------------------------------------------|
  2 1 2 4 1 4 1 4 2   2 2 2 1 2 2 1 2 4


E-------------2-------3-3-3-2-----------------|
B-3---3-5---5---5-3-----------3-3-2-3-5-------|
G---2-----2-----------------------------------|
D---------------------------------------------|
A---------------------------------------------|
E---------------------------------------------|
  2 1 2 4 1 4 1 4 2   2 2 2 1 2 2 1 2 4


E-----2---5-3-2-----7-7-5---------------------|
B---3---3-------3---------7-8-7-5-------------|
G-2-------------------------------------------|
D---------------------------------------------|
A---------------------------------------------|
E---------------------------------------------|
  1 2 1 2 4 2 1 2   3 3 1 3 4 3 1


E-----2---5-3-2-----7-7-5-----------------------|
B---3---3-------3---------7-8-7-5---------------|
G-2-------------------------------7-------------|
D-----------------------------------------------|
A-----------------------------------------------|
E-----------------------------------------------|
  1 2 1 2 4 2 1 2   3 3 1 3 4 3 1 3
Tap to rate this tab
 
# A B C D E F G H I J K L M N O P Q R S T U V W X Y Z