Song name
# A B C D E F G H I J K L M N O P Q R S T U V W X Y Z

Misc Unsigned Bands - Falling Behind - Intro tab

Help us improve GuitareTab! Take a short survey!
This is my band so I'm pretty sure I out of all people would know how to play it.

Key:
~  = Let Ring

e|-------12----------12----------12----------12------------|
B|----12----12----12----12----12----12----12----12---------|
G|-12----------12----------12----------12------------------|
D|---------------------------------------------------------|
A|---------------------------------------------------------|
E|-0-----------0-----------0-----------0-------------------|

e|-------14----------14----------14----------14------------|
B|----14----14----14----14----14----14----14----14---------|
G|-14----------14----------14----------14------------------|
D|---------------------------------------------------------|
A|---------------------------------------------------------|
E|-0-----------0-----------0-----------0-------------------|

e|-----9-------9-------9-------9---------------------------|
B|---9---9---9---9---9---9---9---9-------------------------|
G|-9-------9-------9-------9-------9~----------------------|
D|---------------------------------------------------------|
A|---------------------------------------------------------|
E|-0-------0-------0-------0-------0~----------------------|


For the tab to the next song, search "Falling Behind - Agony"...
I'm not quite done with Agony yet, but the intro sounds amazing with really heavy distortion.

Related for Falling Behind - Intro tab