Song name
# A B C D E F G H I J K L M N O P Q R S T U V W X Y Z

Misc Unsigned Bands - Mutilating Susan - Crematorium tab

this is just the riffs for a song that has not been recorded, or even composed


MUTILATING SUSAN
The Mutilating Susan EP
2008
http://www.myspace.com/mutilatingsusan/

Tabbed By: Jordon Renn

e-mails:

Mutilating_susan@live.com
shorty_jordy93@hotmail.com



      INTRO
|------------------5-|
|-------5-----5------|
|--5--5---5----------|
|-5--5---5--5---5----|
|--------------------|
|--------------------|
  no distortion


      MAIN RIFF
|-------------------------------------------------------------|
|-------------------------------------------------------------|
|-------------------------------------------------------------|
|-[alt. picking]----------------------------------------------|
|-----------------2-----------------3-----------------2h3p2---|
|--0-0-0-0-0-0-0--1--0-0-0-0-0-0-0--3--0-0-0-0-0-0-0--------3-|
   |----p.m.---|     |----p.m.---|     |----p.m.---|
  

      BREAK
|----------------------|
|----------------------|
|----------------------|
|----------------------|
|---5-5-5-5------------|
|---3-3-3-3---3p0--1p0-|
    |-p.m.-|


      2nd RIFF
|--------------------------|
|--------------------------|
|--------------------------|
|--------------------------|
|------2----3-----2h3p2----|
|---0----0----0---------3--|
   p.m. p.m. p.m.
Tap to rate this tab
 
# A B C D E F G H I J K L M N O P Q R S T U V W X Y Z