Song name
# A B C D E F G H I J K L M N O P Q R S T U V W X Y Z

Misc Unsigned Bands - Uranus - I Can Hear Your Heartbeat tab

-------------------------------------------------------------------------------
Uranus-I can hear your heartbeat
-------------------------------------------------------------------------------

Intro
e|---------------------------------------------------------------------------|
B|---------------------------------------------------------------------------|
G|-16-16-12-14-14-12-12-12----12-14-16-16-12-14-14-12-12-12----12-14---------|
D|-------------------------14-------------------------------14---------------|
A|---------------------------------------------------------------------------|
E|---------------------------------------------------------------------------|

e|-----------------------------------------------------------------------------------|
B|-----------------------------------------------------------------------------------|
G|-16-16-12-14-14-12-12-12----12-14-------11-12-------12-14-------11-12-------12-----|
D|-------------------------14-------12-14-------12-14-------12-14-------12-14----14--|
A|-----------------------------------------------------------------------------------|
E|-----------------------------------------------------------------------------------|

e|--------------------------------------------------16-14-16-14-16-14-16-14--|
B|--------------------------------8----10b12-10--8---------------------------|
G|----------------11-12p11-7-9--9---9----------------------------------------|
D|-12-12-12-12/14------------------------------------------------------------|
A|---------------------------------------------------------------------------|
E|---------------------------------------------------------------------------|

e|--12-14-14-12-12------------|
B|-----------------12-12------|
G|----------------------------|
D|----------------------------|
A|----------------------------|
E|----------------------------|
Tap to rate this tab
 
# A B C D E F G H I J K L M N O P Q R S T U V W X Y Z