Song name
# A B C D E F G H I J K L M N O P Q R S T U V W X Y Z

Misc Unsigned Bands - Uranus - Nature Boy tab

-------------------------------------------------------------------------------
Uranus-Nature Boy
-------------------------------------------------------------------------------

e|---------------------------------------------------------------------------|
B|---------------------------------------------------------------------------|
G|-----7--------------------------------------7-----7-7----------------------|
D|--/9---9-7------------------7-7----7-----/9---9-9-----9p7---7-7------------|
A|------------10-7-7-----7-10-----10----10------------------9-----10---------|
E|--------------------10-----------------------------------------------------|

e|---------------------------------------------------------------------------|
B|-------------------10-------10-------10------10-12-12-13-12-10---------10--|
G|-----------9-11-12----11-12----11-12---11-12-------------------12-11-12----|
D|--7-8-9-12-----------------------------------------------------------------|
A|---------------------------------------------------------------------------|
E|---------------------------------------------------------------------------|

e|--------------------10-8-7-------------------------------------------------|
B|----------------7-8-------10/12-10-8-7-8-7---------------------------------|
G|------------7-9----------------------------9-7-9-7---7---------------------|
D|-----7-9-10----------------------------------------10--10-9-10-7-9-7-------|
A|--10-----------------------------------------------------------------------|
E|---------------------------------------------------------------------------|

e|---------------------------------------------------------------------------|
B|----------------------------------------10-8-7-8--7-----7------------------|
G|----------------------------------------------------9-8---8-9-7p0----------|
D|-----7-------------------------------7-7--------------------------7--------|
A|--10---10-9-7-9-7-6-7-6----------7-9---------------------------------------|
E|------------------------8-7--7-8-------------------------------------------|

e|---------------------------------------------------------7-8-7-10-8-7------|
B|--------------------------------------------8-7---7-8-10-------------------|
G|------------------------------------------9-----9--------------------------|
D|-7-9-9--7-------------------------------7----------------------------------|
A|----------7-7-9-9-8-9-8-9-7-9-9-8-9-8-9------------------------------------|
E|---------------------------------------------------------------------------|
Tap to rate this tab
# A B C D E F G H I J K L M N O P Q R S T U V W X Y Z