Song name
# A B C D E F G H I J K L M N O P Q R S T U V W X Y Z

Misc Unsigned Bands - Old News - Somedays tab

Help us improve GuitareTab! Take a short survey!
                   intro
|---------------------------------------------|
|---------------------------------------------|
|---------------------------------------------|   2x's
|-2-2-222---------------2-2-222-2-0-----------|
|-0-0-000-4-5-4-2-4-2-0-0-0-000-----4-2-4-2-0-|
|-^---------------------^---------------------|
 p.m.                  p.m.

          verse
|------------------------------|
|------------------------------|  4x's 1st time
|-2------------7-------4-------|  2x's 2nd time
|-2------------5-55555-2-22222-|
|-0-0000000000-----------------|

       chorus
|-------------------------|
|-------------------------|  4x's
|-------------------------|  
|-22222-77777-44444-22222-|
|-00000-55555-22222-00000-|
|-------------------------|
Related for Old News - Somedays tab