Song name
# A B C D E F G H I J K L M N O P Q R S T U V W X Y Z

Misc Unsigned Bands - Hebazath - Jesus Er Dd tab

-------------------------------------------------------------------------------
			     Mordi - HebazatH
-------------------------------------------------------------------------------
Tabbed by: Thomas c.
Email: Rukula_-@hotmail.com

Tuning: E string tuned to D

Song starts with a bass intro.
Then:

e|---------------------------------------------------------------------------|
B|---------------------------------------------------------------------------|
G|---------------------------------------------------------------------------|
D|---------------------------------------------------------------------------|
A|-----5---3---3--------0---3--5-----5--3-----3--0--3-3--3---5--3------------|
E|--0--------5---0--3-3------------0-------5-----0--3-3--3---5--3------------|

  Pause......

e|---------------------------------------------------------------------------|
B|---------------------------------------------------------------------------|
G|---------------------------------------------------------------------------|
D|-------------------------------5-5--3--------------------------------------|
A|--0-3-0--3-3-3-0--3--5-----------------3--0--------------------------------|
E|--0-3-0--3-3-3------------0------------3--0--------------------------------|


e|---------------------------------------------------------------------------|
B|---------------------------------------------------------------------------|
G|---------------------------------------------------------------------------|
D|---------------------------------------------------------------------------|
A|--3-3-3-3-3-3-3-3----5-5-5-5-5-5-5-5---------------------------------------|
E|--3-3-3-3-3-3-3-3----5-5-5-5-5-5-5-5---------------------------------------|

e|---------------------------------------------------------------------------|
B|---------------------------------------------------------------------------|
G|---------------------------------------------------------------------------|
D|---------------------------------------------------------------------------|
A|-----5---3---3--------0---3--5-----5--3-----3--0--3-3--3---5--3------------|
E|--0--------5---0--3-3------------0-------5-----0--3-3--3---5--3------------|

e|---------------------------------------------------------------------------|
B|---------------------------------------------------------------------------|
G|---------------------------------------------------------------------------|
D|-------------------------------5-5--3--------------------------------------|
A|--0-3-0--3-3-3-0--3--5-----------------3--0--------------------------------|
E|--0-3-0--3-3-3------------0------------3--0--------------------------------|

e|---------------------------------------------------------------------------|
B|---------------------------------------------------------------------------|
G|---------------------------------------------------------------------------|
D|---------------------------------------------------------------------------|
A|--3-3-3-3-3-3-3-3----5-5-5-5-5-5-5-5---------------------------------------|
E|--3-3-3-3-3-3-3-3----5-5-5-5-5-5-5-5---------------------------------------|

e|---------------------------------------------------------------------------|
B|---------------------------------------------------------------------------|
G|---------------------------------------------------------------------------|
D|---------------------------------------------------------------------------|
A|-----5---3---3--------0---3--5-----5--3-----3--0--3-3--3---5--3------------|
E|--0--------5---0--3-3------------0-------5-----0--3-3--3---5--3------------|

Bass breakdown.....

Guitar joins:

e|---------------------------------------------------------------------------|
B|---------------------------------------------------------------------------|
G|---------------------------------------------------------------------------|
D|---------------------------------------------------------------------------|
A|--9-9-9-9-9-9-9-9-9-9-9-9-9-9-9-9------------------------------------------|
E|--9-9-9-9-9-9-9-9-9-9-9-9-9-9-9-9------------------------------------------|

e|---------------------------------------------------------------------------|
B|---------------------------------------------------------------------------|
G|---------------------------------------------------------------------------|
D|---------------------------------------------------------------------------|
A|-----5---3---3--------0---3--5-----5--3-----3--0--3-3--3---5--3------------|
E|--0--------5---0--3-3------------0-------5-----0--3-3--3---5--3------------|



| /  slide up
| \  slide down
| h  hammer-on
| p  pull-off
| ~  vibrato
| +  harmonic
| x  Mute note
===============================================================================
Tap to rate this tab
# A B C D E F G H I J K L M N O P Q R S T U V W X Y Z