Song name
# A B C D E F G H I J K L M N O P Q R S T U V W X Y Z

Misc Unsigned Bands - Eli Rises - My Only Mistake tab

Band: Eli	
Song: My Only Mistake
Tabber: Bill121

Intro:
D|------------------------------------------------|
A|------------------------------------------------|
F|------------------------------------------------|>X2
C|------------------------------------------------|
G|---8-----5-7----8-----5-7-----8---5-7---5-----7-|  
C|000-00000-0-0000-00000-0-0000-000-0-058-85079-97|
  ... ..... . .... ..... . .... ... . 
                                      1 & 2
Chorus:                      _____________________________
D|---------------------------|---------------------------|
A|---------------------------|---------------------------|
F|------141414--1414--9--9-10|---------------------------|
C|------xxxxxx--xxxx---------|10h12p10--10---------------| ALL X2
G|------121212--1212--7--7-8~|--------12--121010h12p10810|
C|000000------00----00-00-0--|---------------------------|
  ......      ..    .. .. .   

Interlude 1:
D|---------------------|
A|---------------------|
F|---------------------|
C|---------------------|>X2
G|---------------------|
c|0000000--00--000000--|
  .......  ..  ......

Verse 1:
D|----------------------------|
A|----------------------------|
F|----------------------------|X2
C|----------------------------|
G|---8-8---12-12---10-10---7-7|
C|000-0-000--0--000--0--000-0-|
 |... . ...  .  ...  .  ... . 
 |They Are 10's not 1's and 0's 
 |
D|--------------------------------------------|
A|--------------------------------------------|
F|--------------------------------------------|
C|--------------------------------------------|    ALL X2
G|------8--8------12--12------10--10------7--7|    
C|101010-10-101010--10--101010--10--101010-10-|
 |...... .. ......  ..  ......  ..  ...... .. 
 |
D|----------------------------|
A|----------------------------|
F|----------------------------|
C|----------------------------|
G|---8-8---12-12---10-10---7-7|
C|888-8-888--8--888--8--888-8-|


Breakdown 1:
D|-------------------------------|
A|-------------------------------|
F|-------------------------------|
C|-------------------------------|
G|-------------------------------|
C|0-0---0-0-0----0-0-0----0-0-16/|
 |                                           
 |                                          _1st______________
D|------------------------------------------|----------------|
A|------------------------------------------|----------------|
F|------------------------------------------|----------------|
C|------------------------------------------|----------------|
G|------------------------------------------|5h8p5h8p5p4h7p4h| All X2
C|000-000---000-000-000---000-000-000---000-|----------------|
 |... ...   ... ... ...   ... ... ...   ...
 |_2nd_______
 |-----------------------|
 |-----------------------|
 |-----------------------|
 |-----------------------|
 |10H12P11H13P12H14P15H17|
 |-----------------------|
 |They Are 10's!
 |
 |Interlude 2:
 |Guitar 1:
D|---------------------------|
A|---------------------------|
F|---------------------------|
C|0~~~~~~~~~~~~~~~~~~~~~~~~~~|
G|---------------------------|
C|---------------------------|
 |
 |Guitar 2:
D|---------------------------|
A|---------------------------|
F|---------------------------|
C|---------------------------|
G|5--8-7-0---8--12-10-8---8-7|
C|-00-0-0-000-00--0--0-000-0-|
 | .. . . ... ..  .  . ... . 
 |Verse 2:                   __1ST________2ND______
D|---------------------------|---------|---------------|
A|---------------------------|---------|---------------|
F|---------------------------|---------|---------910/12| All X2
C|---------------------------|---7-----|-------10------|
G|5--8-7-0---8--12-10-8---8-7|-78-8t7t8|-710/12--------|
C|-00-0-0-000-00--0--0-000-0-|8--------|8--------------|
 | .. . . ... ..  .  . ... . 
 |
 |Interlude 3:
D|------------------------|
A|------------------------|
F|------------------------|
C|------------------------|
G|---5-----7-----5-----7--|
C|058-8579-97058-85170-9-|

Play Chorus
Play Verse 1
play Breakdown 1 without beginning
Play Verse 2

 |Breakdown 2:
D|-------------|
A|-------------|
F|-------------|
C|-------------|X2
G|-------------|
C|000-0-0-00---|
 |
 |Interlude 4
D|------------------------|
A|------------------------|
F|------------------------|
C|------------------------|
G|0h3h5-0h5h7-0h7h8-0h5h7-|
C|------------------------|
 |
 |
 |Ending:
D|-----------------------------------------------|
A|-----------------------------------------------|
F|-----------------------------------------------|
C|-----------------------------------------------|
G|-----------------------------------------------|
C|00000000000000000000000888888888883333332222222|
Tremlo Picking Right Up Here ^

D|------------------------------|
A|------------------------------|
F|------------------------------|
C|------------------------------|
G|------------------------------|
C|000000--00--000000--00--000000|
Tap to rate this tab
# A B C D E F G H I J K L M N O P Q R S T U V W X Y Z