Song name
# A B C D E F G H I J K L M N O P Q R S T U V W X Y Z

Misc Unsigned Bands - Burnout - Homecoming tab

This songs about the best and funnest day of my life with my best friend Kathleen Griffin.
~~~~~~~~~~~~~~~~~~~~~~~~~~~~~~~~~~~~~~~~~~~~~~~~~~~~~~~~~~~~~~~~~~~~~~~~~~~~
no bass for the guitar during the whole song

Intro
e>-----------------------------------------------------<
B>-0-7---------7-0--------0-7-----------7-0------------<
G>-0-7-7---777-7-0-7------0-7-7---777-7-7-0-7----------<
D>-0-5-7-7-777-5-0-7-XXX--0-5-7-7-777-7-5-0-7----------<
A>-----5-7-555-----5-XXX------5-7-555-5-----5----------<
E>-------5-----------XXX-------------------------12/---<


Verse 1
e >--------------------------<    >-------------------------------------<
B>---------------------------<    >-------------------------------------<
G>-7-7-777--5-5-555----------<    >-------------------5-5-555---7-7-777-<
D>-7-7-777--5-5-555--5-5-555-<    >-3-3-333--5-5-555--5-5-555---7-7-777-<
A>-5-5-555--3-3-333--5-5-555-<    >-3-3-333--5-5-555--3-3-333---5-5-555-<
E>-------------------3-3-333-< x4 >-1-1-111--3-3-333-----------------------------------------<
B>---------------------<
G>---------------------<
D>--5-5--XXX--5-5-XXX--<
A>--5-5--XXX--5-5-XXX--<
E>--3-3--XXX--3-3-XXX--<   x2


Verse 2
e >--------------------------<    >-------------------------------------<
B>---------------------------<    >-------------------------------------<
G>-7-7-777--5-5-555----------<    >-------------------5-5-555---7-7-777-<
D>-7-7-777--5-5-555--5-5-555-<    >-3-3-333--5-5-555--5-5-555---7-7-777-<
A>-5-5-555--3-3-333--5-5-555-<    >-3-3-333--5-5-555--3-3-333---5-5-555-<
E>-------------------3-3-333-< x2 >-1-1-111--3-3-333------------------------------------------------------------------------<
B>----------------------------------------------------<
G>----------5-5-555-7-7-777-5-5-555-------------------<
D>--5-5-555-5-5-555-7-7-777-5-5-555-5-5-555--5-5-555--<
A>--5-5-555-3-3-333-5-5-555-3-3-333-5-5-555--5-5-555--<
E>--3-3-333-------------------------3-3-333--3-3-333--<


Bridge
e>---------------------<
B>---------------------<
G>---------------------<
D>--5-5--XXX--5-5-XXX--<
A>--5-5--XXX--5-5-XXX--<
E>--3-3--XXX--3-3-XXX--<   x2


Verse 3
e >--------------------------<    >-------------------------------------<
B>---------------------------<    >-------------------------------------<
G>-7-7-777--5-5-555----------<    >-------------------5-5-555---7-7-777-<
D>-7-7-777--5-5-555--5-5-555-<    >-3-3-333--5-5-555--5-5-555---7-7-777-<
A>-5-5-555--3-3-333--5-5-555-<    >-3-3-333--5-5-555--3-3-333---5-5-555-<
E>-------------------3-3-333-< x4 >-1-1-111--3-3-333-----------------------------------------<
B>---------------------<
G>---------------------<
D>--5-5--XXX--5-5-XXX--<
A>--5-5--XXX--5-5-XXX--<
E>--3-3--XXX--3-3-XXX--<   x2


Verse 4
e>----------------------------------------------------<
B>----------------------------------------------------<
G>----------5-5-555-7-7-777-5-5-555-------------------<
D>--5-5-555-5-5-555-7-7-777-5-5-555-5-5-555--5-5-555--<
A>--5-5-555-3-3-333-5-5-555-3-3-333-5-5-555--5-5-555--<
E>--3-3-333-------------------------3-3-333--3-3-333--<


End On
e>-----<
B>-----<
G>-----<
D>--5--<
A>--5--<
E>--3--<


Lyrics:

My heart is beating for you
Tonight many memories weíre making
As we get our picture taken
And as we dance the night away
I hope this night never ends
Our love I wonít be able to defend
Though our friendship will be on high
Without a doubt
I couldnít live without you

10 minutes in 
As weíre slow dancing
You ask me what I want to talk about
And after a couple minutes of talking to you
I start to fall in love
Please ask me only if you want to go to Sweethearts
I donít mind wasting a night or two 
So that I can be with you

My heart is beating for you
Tonight many memories weíre making
As we get our picture taken
And as we dance the night away
I hope this night never ends
Our love I wonít be able to defend
Though our friendship will be on high
Without a doubt
I couldnít live without you

I donít mind wasting a night or two 
So that I can be with you
I donít mind wasting a night or two 
So that I can be with you
Tap to rate this tab
# A B C D E F G H I J K L M N O P Q R S T U V W X Y Z