Song name
# A B C D E F G H I J K L M N O P Q R S T U V W X Y Z

Misc Unsigned Bands - Honors Geometry - Undergoing The Masquerade tab

intro:

D __ G D __ G

Verse 1 (guitar-1)

-------------------------------------------------------------------------------------|
-------------------------------------------------------------------------------------|
-------------------------------------------------------------------------------------|
-2-2-2-2----2-2-2-2----2-2----5-5-5-5----5-5-5-5----5-5----7-7-7-7----7-7-7-7----7-7-|
-2-2-2-2----2-2-2-2----2-2----5-5-5-5----5-5-5-5----5-5----7-7-7-7----7-7-7-7----7-7-|
-0-0-0-0----0-0-0-0----0-0----3-3-3-3----3-3-3-3----3-3----5-5-5-5----5-5-5-5----5-5-|

-------------------------------------------------------------------------------------|
-------------------------------------------------------------------------------------|
-------------------------------------------------------------------------------------|
-2-2-2-2----2-2-2-2----2-2----5-5-5-5----5-5-5-5----5-5----7-7-7-7----7-7-7-7----7-7-|
-2-2-2-2----2-2-2-2----2-2----5-5-5-5----5-5-5-5----5-5----7-7-7-7----7-7-7-7----7-7-|
-0-0-0-0----0-0-0-0----0-0----3-3-3-3----3-3-3-3----3-3----5-5-5-5----5-5-5-5----5-5-|

-------------------------------------------------------------------------------------|
-------------------------------------------------------------------------------------|
-------------------------------------------------------------------------------------|
-2-2-2-2----2-2-2-2----2-2----5-5-5-5----5-5-5-5----5-5----7-7-7-7----7-7-7-7----7-7-|
-2-2-2-2----2-2-2-2----2-2----5-5-5-5----5-5-5-5----5-5----7-7-7-7----7-7-7-7----7-7-|
-0-0-0-0----0-0-0-0----0-0----3-3-3-3----3-3-3-3----3-3----5-5-5-5----5-5-5-5----5-5-|

--------------------------------------------------------------|
--------------------------------------------------------------|
--------------------------------------------------------------|
-222222222255555555557777777777222222222255555555557777777777-
-222222222255555555557777777777222222222255555555557777777777-
-000000000033333333335555555555000000000033333333335555555555-

-------------------------------------------------------------------------------------|
-------------------------------------------------------------------------------------|
-------------------------------------------------------------------------------------|
-2-2-2-2----2-2-2-2----2-2----5-5-5-5----5-5-5-5----5-5----7-7-7-7----7-7-7-7----7-7-|
-2-2-2-2----2-2-2-2----2-2----5-5-5-5----5-5-5-5----5-5----7-7-7-7----7-7-7-7----7-7-|
-0-0-0-0----0-0-0-0----0-0----3-3-3-3----3-3-3-3----3-3----5-5-5-5----5-5-5-5----5-5-|

-------------------------------------------------------------------------------------|
-------------------------------------------------------------------------------------|
-------------------------------------------------------------------------------------|
-2-2-2-2----2-2-2-2----2-2----5-5-5-5----5-5-5-5----5-5----7-7-7-7----7-7-7-7----7-7-|
-2-2-2-2----2-2-2-2----2-2----5-5-5-5----5-5-5-5----5-5----7-7-7-7----7-7-7-7----7-7-|
-0-0-0-0----0-0-0-0----0-0----3-3-3-3----3-3-3-3----3-3----5-5-5-5----5-5-5-5----5-5-|


--------------------------------------------------------------|
--------------------------------------------------------------|
--------------------------------------------------------------|
-222222222255555555557777777777222222222255555555557777777777-
-222222222255555555557777777777222222222255555555557777777777-
-000000000033333333335555555555000000000033333333335555555555-

BREAKDOWN

-------------------------------------------------------------------------------------|
-------------------------------------------------------------------------------------|
-------------------------------------------------------------------------------------|
-------------------------------------------------------------------------------------|
-------------------------------------------------------------------------------------|
-------------------------------------------------------------------------------------|

--------------------------------------------------------------|
--------------------------------------------------------------|
--------------------------------------------------------------|
-222222222255555555557777777777222222222255555555557777777777-
-222222222255555555557777777777222222222255555555557777777777-
-000000000033333333335555555555000000000033333333335555555555-
Tap to rate this tab
# A B C D E F G H I J K L M N O P Q R S T U V W X Y Z