Song name
# A B C D E F G H I J K L M N O P Q R S T U V W X Y Z

Misc Unsigned Bands - Sacrament - Alive tab

i only tabbed out the intro
cause the rest of the song
is heaps hard to figure out,
for this first part play it           SACRAMENT RULES!!!!!!!!!!
on an acoustic guitar, or an
electric guitar with either
no or very little distortion.

intro
------------------------------------------|
-----5-5h6-6-5h6p5-------3-3h5-5-3h5p3----|
---7---------------7---5---------------5--|    x2
-7-------------------5--------------------|
------------------------------------------|
------------------------------------------|

then...
-------------------------------------------------|
-----1-1h3-3-3/6-5-------------------------------|
---3---------------7-5-5--5h7p5---7-6-6h7p6------|
-3------------------------------7-----------7-9~-|
-------------------------------------------------|
-------------------------------------------------|

Now turn the volume up gradually, then...
-------------------|
-------------------|
-------------------|
-------------------|
-------------------|
-21///////////////\

then play this chord before the bass break:
----
----
----
-2--
-2--
-0--

then play this pre verse
(for this turn up the distortion and the volume and the bass + treble)
--------------------------------------------------|
--------------------------------------------------|
--------------------------------------------------|
--------------------------------------------------|   x2
-----4-----3-----4-----3-----1---------1----------|
-1-1---1-1---1-1---1-1---1-1---2-4-2-4---2-1-2----|

----------------------------------|
----------------------------------|
----------------------------------|
----------------------------------|
-22222-22222-22-222-2222----------|
-22222-22222-22-222-2222----------|


and thats it, after the last part it goes into
the verse but that part is really hard to tab.
Tap to rate this tab
# A B C D E F G H I J K L M N O P Q R S T U V W X Y Z