Song name
# A B C D E F G H I J K L M N O P Q R S T U V W X Y Z

Misc Unsigned Bands - Aushua - Sister Saves tab

First chord:

---------------------------------|
---------------------------------|
-2-2-2-2-2-2-2-2-2-2-2-2-2-2-2-2-|
X--------------------------------|
-0-0-0-0-0-0-0-0-0-0-0-0-0-0-0-0-|
---------------------------------|

repeat once.


Second Chord:

---------------------------------|
-3-3-3-3-3-3-3-3-3-3-3-3-3-3-3-3-|
-2-2-2-2-2-2-2-2-2-2-2-2-2-2-2-2-|
-4-4-4-4-4-4-4-4-4-4-4-4-4-4-4-4-|
---------------------------------|
---------------------------------|

Third chord:


---------------------------------|
-2-2-2-2-2-2-3-2-2-2-2-2-2-2-3-3-|
-2-2-2-2-2-2-2-2-2-2-2-2-2-2-2-2-|
X--------------------------------|
-0-0-0-0-0-0-0-0-0-0-0-0-0-0-0-0-|
---------------------------------|

There you go. That's Sister Saves.
This is directly from the artist. No shit.

www.Aushua.com
Tap to rate this tab
 
# A B C D E F G H I J K L M N O P Q R S T U V W X Y Z