Song name
# A B C D E F G H I J K L M N O P Q R S T U V W X Y Z

Misc Unsigned Bands - Uranus - Feel Like Making Love tab

-------------------------------------------------------------------------------
Uranus-Feel like making love
-------------------------------------------------------------------------------

Solo
e|---------------------------------------------------------------------------|
B|-----------------------------------------9-10-12-9-10-12-9-10-12-9-10-12---|
G|----------------------------------9-9-11-----------------------------------|
D|-9-7-9-7-9-----7-9-7-9-7-9-7-9/12------------------------------------------|
A|-----------7-9-------------------------------------------------------------|
E|---------------------------------------------------------------------------|

e|-9-9-10-9----9-10----9-12-10-9----------------------------------12-8-------|
B|----------12------12-----------12-10-9-10-9--------------------------------|
G|--------------------------------------------11-9---------------------------|
D|-------------------------------------------------11-9----9--12-------------|
A|------------------------------------------------------11-------------------|
E|---------------------------------------------------------------------------|

e|--9----9----12-10-9-10-9----9----------------------------------------------|
B|----12---10--------------12---12-10-12-10-9-10-12-10-9-10-9----------------|
G|------------------------------------------------------------11-9-11-9------|
D|---------------------------------------------------------------------------|
A|---------------------------------------------------------------------------|
E|---------------------------------------------------------------------------|

e|---------------------------------------------------------------------------|
B|-----------------------------9-10----9-10----9-10-12-10-9-10-9-------------|
G|------------------------9-11------11------11------------------11-----------|
D|-11-9-11-----7-9-7-9-11------------------------------------------11-9-7----|
A|---------9-9---------------------------------------------------------------|
E|---------------------------------------------------------------------------|
Tap to rate this tab
# A B C D E F G H I J K L M N O P Q R S T U V W X Y Z