Song name
# A B C D E F G H I J K L M N O P Q R S T U V W X Y Z

Misc Unsigned Bands - Uranus - Shine Shine tab

-------------------------------------------------------------------------------
Uranus-Shine Shine
-------------------------------------------------------------------------------

Intro
e|---------------------------------------------------------------------------|
B|---------------------------------------------------------------------------|
G|---------------------------------------------------------------------------|
D|----------------------------------------9-9-------------10-12-10-----------|
A|--------10-10-10----10----10tr12--12-12-----12-12-10-12----------12--------|
E|-10-12-----------12----12--------------------------------------------------|

e|---------------------------------------------------------------------------|
B|----------------------------------10-10----10------------------------------|
G|----------------------------------------12----12---------------------------|
D|--------9-9-------------10-12-10-----------------12-10-12-14---------------|
A|--12-12-----12-12-10-12--------------------------------------10-12---------|
E|---------------------------------------------------------------------------|

e|--------------------12-12-10--------------------------|
B|-----------------------------13-10--------------------|
G|-----------------------------------12-----------------|
D|--10-12-10----10-12-----------------------------------|
A|-----------12-----------------------------10-11-12----|
E|---------------------------------------12-------------|
Tap to rate this tab
 
# A B C D E F G H I J K L M N O P Q R S T U V W X Y Z