Song name
# A B C D E F G H I J K L M N O P Q R S T U V W X Y Z

Misc Unsigned Bands - No Introductions - I Wish It Was Love Again tab

INTRO 
e|-2----------2----------------2-----------2-----------------|
B|--------3----------3--3--3-----------3----------3--3--3----|
G|----2----------3-----------------2----------2--------------|
D|-----------------------------------------------------------|
A|-----------------------------------------------------------|
E|-----------------------------------------------------------|

CHORUS                       X2 
e|-2--2--2-----------3--3--3---|--2--2--2--2-----------------------|
B|-3--3--3-----------0--0--0--3|--3--3--3--5-------------------3---|
G|-2--2--2--2--2--2--0--0--0---|--2--2--2--2--4--2--4--2--0--------|
D|-0--0--0--2--2--2--0--0--0---|--0--0--0--0--0--0--0--0--0--------|
A|----------0--0--0--2--2--2---|-----------------------------------|
E|----------0--0--0--3--3--3---|-----------------------------------|
 
VERSE                X2                                         X4           
e|---------------------|---------------------|---------------------|
B|-3--3--3--3--3--5--2-|-0--0--0--0--0--3--2-|-0--0--0--0--0--3--5-|-5--5
G|---------------------|---------------------|---------------------|
D|-0-------------------|---------------------|---------------------|
A|---------------------|-2-------------------|-2-------------------|
E|---------------------|---------------------|---------------------|

VERSE Cont.            X4? 
e|-5--5--5--5--2--2--2--2--|
B|-5--5--5--5--2--2--2--2--|
G|-5--5--5--5--2--2--2--2--|
D|-------------------------|
A|-------------------------|
E|-------------------------|

CHORUS

VERSE 

VERSE Cont.

INSTRUMENTAL                    X2? 
e|-2--2--2--2--3--3--3--3-------------------------|
B|-3--3--3--3--0--0--0--0--5--5--5--5--2--2--2--2-|
G|-2--2--2--2--0--0--0--0--5--5--5--5--2--2--2--2-|
D|-0--0--0--0--0--0--0--0--5--5--5--5--2--2--2--2-|
A|-------------2--2--2--2-------------------------|
E|-------------3--3--3--3-------------------------|

CHORUS

CHORUS (no singing, no repeats)
Tap to rate this tab
 
# A B C D E F G H I J K L M N O P Q R S T U V W X Y Z