Song name
# A B C D E F G H I J K L M N O P Q R S T U V W X Y Z

Misc Unsigned Bands - West Bruce Laing - Why Dontcha tab

-------------------------------------------------------------------------------
			     Why Dontcha' - West, Bruce and Laing
-------------------------------------------------------------------------------
Tabbed by:Skynyrdman1958

Tunning-E,A,D,g,b,e


Album:Why Dontcha'
Composers:West Bruce & Laing

Count it in 8th notes

Intro:

       D  C   G  A5            A A  C  D  C   A      D D  C  A   G    
e|--------------------|------|-----------------------------------3----|
b|--------------------|------|-2-2------------2--------------2--------|
g|-----7--5-----------|------|-2-2--5--7--5---2-x4---7-7--5--2--------|
D|-----7--5---5--7--7-|-7----|-2-2--5--7--5---2------7-7--5--2--------|
A|-----5--3---5--7--7-|-7-x8-|------3--5--3----------5-5--3------2----|
E|------------3--5--5-|-5----|-----------------------------------3----|


Over dub:Hold each for a whole mesure
e|-------------------|
b|--2----------------|
g|--2----5-----------|
D|--2----5-----------|
A|-------3-----------|
E|-------------------|


Verse:Repeat 3 times
       
e|-----------------------------------------3----|
b|-2-2-2-2-2------------2--------------2--------|
g|-2-2-2-2-2--5--7--5---2-x4---7-7--5--2--------|
D|-2-2-2-2-2--5--7--5---2------7-7--5--2--------|
A|------------3--5--3----------5-5--3------2----|
E|-----------------------------------------3----|

Chours:Repeat 2 times then back to Verse

|--3--3-----2--2-------------------------|
|-----------3--3---2-----2-----2---------|
|-----------2--2---2-----2-----2---------|
|------------------2-----2-----2---------|
|--2--2----------------------------------|
|--3--3----------------3----3------------|


| /  slide up
| \  slide down
| h  hammer-on
| p  pull-off
| ~  vibrato
| +  harmonic
| x  Mute note
===============================================================================
Tap to rate this tab
# A B C D E F G H I J K L M N O P Q R S T U V W X Y Z