Song name
# A B C D E F G H I J K L M N O P Q R S T U V W X Y Z

Misc Unsigned Bands - No Time Toulouse - Resent But Recall tab

Spår 2
      S  S  S  S  S  S  S  S  S  S  S  S  S  S  S  S     H         Q     Q     
E||-----15h19p15----15h19p15----15h19p15----15h19p15-|------------------------|
B||--17----------17----------17----------17----------|--17--------19----20----|
G||--------------------------------------------------|------------------------|
D||--------------------------------------------------|------------------------|
A||--------------------------------------------------|------------------------|
E||--------------------------------------------------|------------------------|


   S  S  S  S  S  S  S  S  S  S  S  S  S  S  S  S  
-----15h19p15----15h19p15----15h19p15----15h19p15-|
--17----------17----------17----------17----------|
--------------------------------------------------|
--------------------------------------------------|
--------------------------------------------------|
--------------------------------------------------|


   |-----3-----|     |-----3-----|     
   Q     Q     Q     Q     Q     Q     
--20----19----17----19----17----15----|
--------------------------------------|
--------------------------------------|
--------------------------------------|
--------------------------------------|
--------------------------------------|


   S  S  S  S  S  S  S  S  S  S  S  S  S  S  S  S     H         Q     Q     
-----15h19p15----15h19p15----15h19p15----15h19p15-|------------------------|
--17----------17----------17----------17----------|--17--------19----20----|
--------------------------------------------------|------------------------|
--------------------------------------------------|------------------------|
--------------------------------------------------|------------------------|
--------------------------------------------------|------------------------|


   S  S  S  S  S  S  S  S  S  S  S  S  S  S  S  S  
-----15h19p15----15h19p15----15h19p15----15h19p15-|
--17----------17----------17----------17----------|
--------------------------------------------------|
--------------------------------------------------|
--------------------------------------------------|
--------------------------------------------------|


   E    E   E    E   E    E   Q       S S S S E  E  Q      E  S S  
-------15-------15-------15--------|--3-0-------------------------|
--15b------15b------15b------15----|------3-0---------------------|
-----------------------------------|----------2--0--2br----0------|
-----------------------------------|--------------------------0-2-|
-----------------------------------|------------------------------|
-----------------------------------|------------------------------|


  E  E  E  S S Q.     S S    E  S S E  S S E  S S  E  S  S  
--------------------------|--------------------------------|
----------------------0-3-|--5--0-5-7--0-7-8--0-8-10--0-10-|
--0--2--3--2-0------------|--------------------------------|
---------------2------L---|--------------------------------|
--------------------------|--------------------------------|
--------------------------|--------------------------------|


   Q     E    E   H            E   E   E   E   E   E  Q     
-------------15-------------|-----12------14------15-------|
--12----15b------15b--------|------------------------------|
----------------------------|------------------------------|
----------------------------|--9------12------14-----------|
----------------------------|------------------------------|
----------------------------|------------------------------|


  E   E   E   E   E   E  Q       E   E   E   E   E   E   E   E   
-----12------14------15-------|-----12------14------15------17--|
------------------------------|---------------------------------|
------------------------------|---------------------------------|
--9------12------14-----------|--9------12------14------16------|
------------------------------|---------------------------------|
------------------------------|---------------------------------|


   E   E   E   E   E   E   E   E      Q      Q      Q      E   E   
------19------20------22--22--22--|--22b----22b----22b----22--20--|
----------------------------------|-------------------------------|
----------------------------------|-------------------------------|
--17------19------21--------------|-------------------------------|
----------------------------------|-------------------------------|
----------------------------------|-------------------------------|


   E   Q     Q     E   E   E      S  S  S  S  E   E   E   E   E   E   
--19--17----15----12--14--12--|--12-14-15-14-12----------------------|
------------------------------|------------------15--13--12----------|
------------------------------|------------------------------14--12--|
------------------------------|--------------------------------------|
------------------------------|--------------------------------------|
------------------------------|--------------------------------------|


   |--3--|  |--3--|  |---3---|                          
   S  S  S  S  S  S  E   E   E   H                      
------------------------------------------|-----------||
------------------------------------------|-----------||
--11-12-11-12-11-12-11--12--11------------|-----------||
--------------------------------14--------|-----------||
------------------------------------------|-----------||
------------------------------------------|-----------||




Duration Legend
---------------
W - whole
H - half
Q - quarter
E - 8th
S - 16th
T - 32nd
X - 64th
. - note dotted
|-n-|  - n-tuplets


Tablature Legend
----------------
L - tied note
x - dead note
g - grace note
(n) - ghost note
> - accentuded note
NH - natural harmonic
AH - artificial harmonic
TH - tapped harmonic
SH - semi harmonic
PH - pitch harmonic
h - hammer on
p - pull off
b - bend
br - bendRelease
pb - preBend
pbr - preBendRelease
brb - bendReleaseBend
\n/ - tremolo bar dip
\n - tremolo bar dive
-/n - tremolo bar Release up
/n\ - tremolo bar inverted dip
/n - tremolo bar return
-\n - tremolo bar Release down
S - shift slide
s - legato slide
/ -  slide into from below or out of upwards
\ -  slide into from above or out of downwards
~ - vibrato
W - wide vibrato
tr - trill
TP - tremolo picking
T - tapping
S - slap
P - pop
< - fade in
^ - brush up
v - brush down
Tap to rate this tab
 
# A B C D E F G H I J K L M N O P Q R S T U V W X Y Z